Song name
# A B C D E F G H I J K L M N O P Q R S T U V W X Y Z

Violent Force - Sign Of Evil tab

-------------------------------------------------------------------------------
                             Sign of Evil - Violent Force
-------------------------------------------------------------------------------
Tabbed by: Thrasharn
Email: Thrasharn@live.se

Tuning: Standard


INTRO: This riff I think you must listen to the record to get it out right.

1a
E:---------------------------------------------------------------|
B:---------------------------------------------------------------|
G:---------------------------------------------------------------| 
D:-7-0-7-0-7-0-7-0-7---------------------------------------------| 
A:-5-5-5-5-5-5-5-5-5---------------------------------------------| 
E:---------------------------------------------------------------| 
1b
E:---------------------------------------------------------------|
B:---------------------------------------------------------------|
G:---------------------------------------------------------------| 
D:----------9-10-----------------10-9-7--------------------------| 
A:-5-5-5-5--7-8--1-1-1-1-3-3-3-3-8--7-5--------------------------| 
E:---------------------------------------------------------------| 
   . . . .       . . . . . . . .
Verse
E:---------------------------------------------------------------|
B:---------------------------------------------------------------|
G:---------------------------------------------------------------| 
D:----------------9-10---------------------------------10-9------| 
A:-55555555555555-7-8--111111111111111-333333333333333-8--7------| 
E:---------------------------------------------------------------| 
   ..............      ............... ...............
Chorus
E:---------------------------------------------------------------|
B:---------------------------------------------------------------|
G:---------------------------------------------------------------| 
D:-5-7-10-5-5-5--------------------------------------------------| 
A:-3-5-8--3-3-3-5-5----------------------------------------------| 
E:--------------3-3----------------------------------------------| 

Basspart/Solo
E:---------------------------------------------------------------|
B:---------------------------------------------------------------|
G:---------------------------------------------------------------| 
D:---------------------------------------------------------------| 
A:---------------------------------------------------------------| 
E:-10-10-10-10-10-6-6-6-6-6-6-1-1-1-1-1-5-5-5-5-5-6-7-8-9--------|
This is kinda the basstab for this place for guitar just hold out the chords.

Outro
e:---------------------------------------------------------------|
B:---------------------------------------------------------------|
G:---------------------------------------------------------------| 
D:--------------7-5------------------7-5-7~----------------------| 
A:-5555555555---5-3--5555555555555---5-3-5~----------------------| 
E:---------------------------------------------------------------| 
   ..........        .............

Think this is pretty much it for the rhythm part. 
This is also my first tab. So please rate.

************************************
| .   palm mute
| /   slide up
| \   slide down
| h   hammer-on
| p   pull-off
| ~   vibrato
| +   harmonic
| x   Mute note
| b   Bend
| pb  Pre-bend
| br  Bend release
| pbr Pre-bend release
| brb Bend release bend

************************************
Tap to rate this tab
# A B C D E F G H I J K L M N O P Q R S T U V W X Y Z