Song name
# A B C D E F G H I J K L M N O P Q R S T U V W X Y Z

Violent Soho - Outsider tab

Band: Violent Soho
Song: Outsider
Album: We Don't Belong Here

Great australian band, album's on i-tunes and they've got a myspace and everything. This 
the only acoustic track on the album but it's nice so i figured that maybe there's 
somewhere out there who can't tab music and wants to play it. So this is for that random person:)

Intro + Verse:

e|---------------------------------------------------------------|
B|---------------------------------------------------------------|
G|---------------------------------------------------------------|
D|------6---4-----2----6---4-2----2---2---2---2---2---2----------|
A|----2---------2---------------0---0---0---0---2---2---2-0-2-0--|
E|--0-----0---0------0---0---------------------------------------|

Chorus:

e|-----------------------------------|
B|-----------------------------------|
G|-----------------------------------|
D|----6---6---6---6---6---6---6---6--|
A|------------------0---0---2---2----|
E|--0---0---0---0--------------------|

Background Electric Melody:

e|--------------------------------------------|
B|--------------------------------------------|
G|--12-12--12-12-12--12--12-12/8-8-8-8/7-7-7--|
D|--------------------------------------------|
A|--------------------------------------------|
E|--------------------------------------------|

Acoustic Ends On:
e|-----|
B|-----|
G|-----|
D|--6--|
A|-----|
E|--0--|

Electric Ends On:

e|-------|
B|-------|
G|--12~--|
D|-------|
A|-------|
E|-------|
Tap to rate this tab
# A B C D E F G H I J K L M N O P Q R S T U V W X Y Z