Song name
# A B C D E F G H I J K L M N O P Q R S T U V W X Y Z

Violent Soho - Jesus Stole My Girlfriend tab

Verse/Chorus
e-----------------------------------------|
b-----------------------------------------|
g-----------------------------------------|
d--3333-0000-3333-0000--------------------|
a--3333-0000-3333-0000--------------------|
D--3333-0000-3333-0000--------------------|

Verse
Guitar 2
e-----------------------------------------|
b-----------------------------------------|
g-----------------------------------------|
d----3---0---3---0------------------------|
a---3---0---3---0-------------------------|
D--3---0---3---0--------------------------|

Riff played over intro and those bridges inbetween verses
e--------------------------------------------|
b--10-9-10-9-5-6-5-6-10-9-10-9-5-6-5-6-------|
g--------------------------------------------|
d--------------------------------------------|
a--------------------------------------------|
D--------------------------------------------|

Pre-Chorus
e-----------------------------------------|
b-----------------------------------------|
g-----------------------------------------|
d--3333-0000-8888-5555--------------------|  X2
a--3333-0000-8888-5555--------------------|
D--3333-0000-8888-5555--------------------|

Chorus

Bridge
Listen to the song to figure out how many times to play the chords
e----------------------------------------------------------|
b----------------10-9-10-9-10-9-10-9-----------------------|
g----------------------------------------------------------|
d---8-5-3-2------------------------------------------------|
a---8-5-3-2------------------------------------------------|
D---8-5-3-2------------------------------------------------|

Chorus

Outro
Played over last chorus
e-------------------------------------------------------------------|
b-10-9-10-9-5-6-5-6-10-9-10-9-5-6-5-6-10-9-10-9-5-6-5-6-10-9-10-9-5-|
g-------------------------------------------------------------------|
d-------------------------------------------------------------------|
a-------------------------------------------------------------------|
D-------------------------------------------------------------------|
Tap to rate this tab
 
# A B C D E F G H I J K L M N O P Q R S T U V W X Y Z