Song name
# A B C D E F G H I J K L M N O P Q R S T U V W X Y Z

Violent Soho - Outsider tab

-------------------------------------------------------------------------------
			     Outsider - Violent Soho
-------------------------------------------------------------------------------
Tabbed by: Jordan
Email: mrhmouse@gmail.com

Tuning: Drop D


As far as I can tell, this song is in drop D, just like the rest of the album.
Great song and great band!

Timing isn't exact, listen to the song to get it right!

Intro/Verse:

 e ----------------------------------------------------------------|
 B ----------------------------------------------------------------|
 G ----------------------------------------------------------------|
 D ----4---2---2-0-----4---2---0-----------------------------------|
 A --5---------------5-----------0---5---5---5---5---5---5-----5---|
 D 0-----0---0-----0-----0---0-----5---5---5---5---7---7---7-5---5-|


Chorus:

 e --------------------------------|
 B --------------------------------|
 G --------------------------------|
 D --4---4---4---4---4---4---4---4-|
 A ------------------------0---0---|
 D 0---0---0---0---5---5-----------|


Second Guitar Melody:
 e ------------------------------------------------------------------------|
 B ------------------------------------------------------------------------|
 G --11----11----11--11----11----11----------------------------------------|
 D 12----12----12--12----12----12--11-12---11--12--11-12--9-11--9-11--9-11-|
 A ------------------------------------------------------------------------|
 D ------------------------------------------------------------------------|

Also near the end, the second guitar plays this:
 e ------------------------------------------------------------------------|
 B ------------------------------------------------------------------------|
 G --11----11----11--11----11----11----------------------------------------|
 D 12----12----12--12----12----12--11-12---11--12--11-12--9-11--9-12p11-11-|
 A ------------------------------------------------------------------------|
 D ------------------------------------------------------------------------|

Final note for first guitar:
 e --
 B --
 G --
 D --
 A --
 D -0

Final notes for second guitar:
 e -------|
 B -------|
 G ----11-|
 D -12----|
 A -------|
 D -------|
Tap to rate this tab
# A B C D E F G H I J K L M N O P Q R S T U V W X Y Z