Song name
# A B C D E F G H I J K L M N O P Q R S T U V W X Y Z

Violent Soho - Son Of Sam tab

|----------------------------|
|----------------------------|
|---------------------76-----| x8
|-44444-44444-477777--76-7---| 
|-44444-44444-477777--54-7---|
|-22222-22222-255555-----5---|


|------------------|
|------------------|
|----------776-----| x4
|-4445-5-5-776-7---|(you can play this part an 
|-4445-5-5-554-7---|octave higher, just for kicks)
|-2223-3-3-----5---|


|----------------------------|
|----------------------------|
|---------------------76-----| x4
|-44444-44444-477777--76-7---| 
|-44444-44444-477777--54-7---|
|-22222-22222-255555-----5---|


|------------------|
|------------------|
|----------776-----| x4
|-4445-5-5-776-7---|
|-4445-5-5-554-7---|
|-2223-3-3-----5---|


|-------------------------------------|
|-------------------------------------|
|-------------------------------------|
|-4~~~~~~~~~~~~~~~~~~~~~~~~~~~~~~~~~~~| (let this part ring)
|-4~~~~~~~~~~~~~~~~~~~~~~~~~~~~~~~~~~~|
|-2~~~~~~~~~~~~~~~~~~~~~~~~~~~~~~~~~~~|


|-------------------------------------------------|
|-------------------------------------------------|
|-------------------------------------------------|
|-44------------44------------44------------44----| 
|-44------------44------------44------------44----|
|-22------------22------------22------------22----|
  **            **            **            **

Gtr 1
|----------------------------|
|----------------------------|
|---------------------76-----| x4
|-44444-44444-477777--76-7---| (third time through Gtr 2 comes in) 
|-44444-44444-477777--54-7---|
|-22222-22222-255555-----5---|

Gtr 2
|-----------------14^(15)\-15^(16)-14--|
|-12x20-10x20-1012---------------------|
|--------------------------------------|
|--------------------------------------|
|--------------------------------------|
|--------------------------------------|


|------------------|
|------------------|
|----------776-----| x8
|-4445-5-5-776-7---|
|-4445-5-5-554-7---|
|-2223-3-3-----5---|


|---------------------------------|
|---------------------------------|
|---------------------76----------|
|-44444-44444-477777--76-7-----4\-| 
|-44444-44444-477777--54-7-----4\-|
|-22222-22222-255555-----5-----2\-|
Tap to rate this tab
 
# A B C D E F G H I J K L M N O P Q R S T U V W X Y Z