Song name
# A B C D E F G H I J K L M N O P Q R S T U V W X Y Z

Violent Soho - Jesus Stole My Girlfriend tab

Verse 1
PM--------------------|
e-----------------------------------------|
b-----------------------------------------|
g-----------------------------------------|
d--3333-0000-3333-0000--------------------|x2
a--3333-0000-3333-0000--------------------|
D--3333-0000-3333-0000--------------------| 

Main Riff
|e---------------------------------------------|
|b---------------------------------------------|
|g--14-13-14-13-9-10-9-10-14-13-14-13-9-10-9-10|
|d---------------------------------------------|
|a---------------------------------------------|
|D---------------------------------------------|
|
|PM--------------------|
|e-----------------------------------------|
|b-----------------------------------------|
|g-----------------------------------------|
|d--3333-0000-3333-0000--------------------|x2
|a--3333-0000-3333-0000--------------------|
|D--3333-0000-3333-0000--------------------| 

Verse 2
PM--------------------|
e-----------------------------------------|
b-----------------------------------------|
g-----------------------------------------|
d--3333-0000-3333-0000--------------------|x2
a--3333-0000-3333-0000--------------------|
D--3333-0000-3333-0000--------------------| 

Main Riff
|e----------------------------------------------|
|b----------------------------------------------|
|g--14-13-14-13-9-10-9-10-14-13-14-13-9-10-9-10-|
|d----------------------------------------------|
|a----------------------------------------------|
|D----------------------------------------------|
|
|PM--------------------|
|e-----------------------------------------|
|b-----------------------------------------|
|g-----------------------------------------|
|d--3333-0000-3333-0000--------------------|x2
|a--3333-0000-3333-0000--------------------|
|D--3333-0000-3333-0000--------------------| 

Pre-Chorus
e-----------------------------------------|
b-----------------------------------------|
g-----------------------------------------|
d--33xx-00xx-8888-5555--------------------|x2
a--33xx-00xx-8888-5555--------------------|
D--33xx-00xx-8888-5555--------------------|

Chorus
e-----------------------------------------|
b-----------------------------------------|
g-----------------------------------------|
d--3333-0000-3333-0000--------------------|x2
a--3333-0000-3333-0000--------------------|
D--3333-0000-3333-0000--------------------|

Verse 3
PM--------------------|
|e-----------------------------------------|
|b-----------------------------------------|
|g-----------------------------------------|
|d--3333-0000-3333-0000--------------------|x2
|a--3333-0000-3333-0000--------------------|
|D--3333-0000-3333-0000--------------------|
|
|e-----------------------------------------|
|b-----------------------------------------|
|g-----------------------------------------|
|d----3----0-----3----0--------------------|x2
|a---3----0-----3----0---------------------|
|D--3----0-----3----0----------------------|

PM--------------------|
|e-----------------------------------------|
|b-----------------------------------------|
|g-----------------------------------------|
|d--3333-0000-3333-0000--------------------|x2
|a--3333-0000-3333-0000--------------------|
|D--3333-0000-3333-0000--------------------|

|
|e-----------------------------------------|
|b-----------------------------------------|
|g-----------------------------------------|
|d----3----0-----3----0--------------------|x2
|a---3----0-----3----0---------------------|
|D--3----0-----3----0----------------------|
|
|e-----------------------------------------|
|b-----------------------------------------|
|g-----14b16------14b16--------------------|
|d-----------------------------------------|x2
|a-----------------------------------------|
|D-----------------------------------------|

Main Riff
|e----------------------------------------------|
|b----------------------------------------------|
|g--14-13-14-13-9-10-9-10-14-13-14-13-9-10-9-10-|
|d----------------------------------------------|
|a----------------------------------------------|
|D----------------------------------------------|
|
|PM--------------------|
|e-----------------------------------------|
|b-----------------------------------------|
|g-----------------------------------------|
|d--3333-0000-3333-0000--------------------|x2
|a--3333-0000-3333-0000--------------------|
|D--3333-0000-3333-0000--------------------| 

Pre-Chorus
e-----------------------------------------|
b-----------------------------------------|
g-----------------------------------------|
d--33xx-00xx-8888-5555--------------------|x2
a--33xx-00xx-8888-5555--------------------|
D--33xx-00xx-8888-5555--------------------|

Chorus
e-----------------------------------------|
b-----------------------------------------|
g-----------------------------------------|
d--3333-0000-3333-0000--------------------|x2
a--3333-0000-3333-0000--------------------|
D--3333-0000-3333-0000--------------------|

Bridge
PM-----------------------------|
e--------------------------------------------|
b--------------------------------------------|
g--------------------------------------------|
d---8-------5-------3-------2----------------|
a---8-x16---5-x16---3-x16---2-x24------------|
D---8-------5-------3-------2----------------|

Bridge Ending
e----------------------------------------------|
b----------------------------------------------|
g--14-13-14-13-14-13-14-13---------------------|
d----------------------------------------------|
a----------------------------------------------|
D----------------------------------------------|

Pre-Chorus
e-----------------------------------------|
b-----------------------------------------|
g-----------------------------------------|
d--3333-0000-8888-5555--------------------|x2
a--3333-0000-8888-5555--------------------|
D--3333-0000-8888-5555--------------------|

End Chorus
e-----------------------------------------|
b-----------------------------------------|
g-----------------------------------------|
d--3333-0000-3333-0000--------------------|x2
a--3333-0000-3333-0000--------------------|
D--3333-0000-3333-0000--------------------| 

|e-----------------------------------------------|
|b-----------------------------------------------|
|g--14-13-14-13-9-10-9-10-14-13-14-13-9-10-9-10-9|
|d-----------------------------------------------|
|a-----------------------------------------------|
|D-----------------------------------------------|
|
|e-----------------------------------------|
|b-----------------------------------------|
|g-----------------------------------------|
|d--3333-0000-3333-0000--------------------|x2
|a--3333-0000-3333-0000--------------------|
|D--3333-0000-3333-0000--------------------| 
Tap to rate this tab
 
# A B C D E F G H I J K L M N O P Q R S T U V W X Y Z