Song name
# A B C D E F G H I J K L M N O P Q R S T U V W X Y Z

Violent Soho - Jesus Stole My Girlfriend tab

Violent Soho

Jesus stole my girlfriend...

Standard Tuning

Intro/Verse-Palm Muted, Open during main riff

e-----------------------------------------|
b-----------------------------------------|
g-----------------------------------------| Repeated
d-------2222------2222--------------------|
a--3333-0000-3333-0000--------------------|
e--1111------1111-------------------------|

Main Riff

e--------------------------------------------|
b--10-9-10-9-----------10-9-10-9-------------|
g------------9-10-9-10-----------9-10-9-10---|
d--------------------------------------------|
a--------------------------------------------|
e--------------------------------------------|

Pre-Chorus

e-----------------------------------------|
b-----------------------------------------|
g-----------------------------------------|
d-------2222-3333-------------------------|  X2
a--3333-0000-1111-5555--------------------|
e--1111-----------3333--------------------|

Chorus is same as verse.

e-----------------------------------------|
b-----------------------------------------|
g-----------------------------------------| Repeated
d-------2222------2222--------------------|
a--3333-0000-3333-0000--------------------|
e--1111------1111-------------------------|

Bridge

e----------------------------------------------------------|
b----------------------------------------------------------|
g----------------------------------------------------------|
d---333333333333---------------------------222222222222----|
a---111111111111-555555555555-333333333333-000000000000----|
e----------------333333333333-111111111111-----------------|

e-----------------------------------------|
b--10-9-10-9-10-9-10-9--------------------|
g-----------------------------------------|
d-----------------------------------------|
a-----------------------------------------|
e-----------------------------------------|

Pre-Chorus
e-----------------------------------------|
b-----------------------------------------|
g-----------------------------------------|
d-------2222-3333-------------------------|  X2
a--3333-0000-1111-5555--------------------|
e--1111-----------3333--------------------|

Chorus

e-----------------------------------------|
b-----------------------------------------|
g-----------------------------------------| Repeated
d-------2222------2222--------------------|
a--3333-0000-3333-0000--------------------|
e--1111------1111-------------------------|

Outro

e-----------------------------------------|
b---10-9-10-9-10-9-10-9-10-9-10-9---------|
g---------------------------------9-------|
d-----------------------------------------|
a-----------------------------------------|
e-----------------------------------------|
Tap to rate this tab
 
# A B C D E F G H I J K L M N O P Q R S T U V W X Y Z