Song name
# A B C D E F G H I J K L M N O P Q R S T U V W X Y Z

Violent Soho - Muscle Junkie tab

Bass Intro On Guitar
e-----------------------------------------------|
b-----------------------------------------------|
g-----------------------------------------------|
d-----------------------------------------------|x4
a-----------------------------------------------|
E--12-12-12-12-14-14-14-14-5-3-5-5-7-7-7-7------| 

Verse
PM--------------------------------|
e--------------------------------------|
b--------------------------------------|
g--------------------------------------|
d--7-7-7-7-9-9-9-9---------------------|x2
a--7-7-7-7-9-9-9-9-5-3-5-5-5-5-5-5-----|
E------------------5-3-5-5-7-7-7-7-----| 

Chorus
|e--------------------------------------|
|b--------------------------------------|
|g--------------------------------------|
|d--7-7-7-7-9-9-9-9---------------------|
|a--7-7-7-7-9-9-9-9-5-3-5-5-5-5-5-5-----|
|E------------------5-3-5-5-7-7-7-7-----| 

|e--------------------------------------|
|b--------------------------------------|
|g--------------------------------------|
|d--7-7-7-7-9-9-9-9---------------------|
|a--7-7-7-7-9-9-9-9-5-3-5-5-5-5-3-5-----|
|E------------------5-3-5-5-7-5-3-5-----| 

|e--------------------------------------|
|b--------------------------------------|
|g--------------------------------------|
|d--7-7-7-7-9-9-9-9---------------------|
|a--7-7-7-7-9-9-9-9-5-3-5-5-5-5-5-5-----|
|E------------------5-3-5-5-7-7-7-7-----| 

|e--------------------------------------|
|b--------------------------------------|
|g--------------------------------------|
|d--7-7-7-7-9-9-9-9---------------------|
|a--7-7-7-7-9-9-9-9-5-3-5-5-5-5-7-7-----|
|E------------------5-3-5-5-7-7-9-9-----| 

Verse
PM--------------------------------|
e--------------------------------------|
b--------------------------------------|
g--------------------------------------|
d--7-7-7-7-9-9-9-9---------------------|x2
a--7-7-7-7-9-9-9-9-5-3-5-5-5-5-5-5-----|
E------------------5-3-5-5-7-7-7-7-----|

Lead Riff w/ Chorus
e--------------------------------------|
b--------------------------------------|
g--9-11-12-11-9-11---------------------|
d--------------------------------------|x2
a--------------------------------------|
E--------------------------------------|

Bridge
PM-------------------------------------|
e--------------------------------------|
b--------------------------------------|
g--------------------------------------|
d--------------------------------------|x2
a-55555555-77777777-99999999--44444444-|
E-55555555-77777777-77777777--44444444-|

PM-------------------|
e--------------------|
b--------------------|
g--------------------|
d--------------------|x2
a-55555555-77777777--|
E-55555555-77777777--|

Chorus until the end with lead riff 
Tap to rate this tab
 
# A B C D E F G H I J K L M N O P Q R S T U V W X Y Z