Song name
# A B C D E F G H I J K L M N O P Q R S T U V W X Y Z

Violent Soho - Muscle Junkie tab

 bass intro

|---------------------------------|
|---------------------------------|
|---------------------------------|
|-0-0-0-0-9-9-9-9-3-2-3-3-5-5-5-5-|

 guitar verse
|---------------------------------|
|---------------------------------|
|---------------------------------|
|-0-0-0-0-9-9-9-9-3-2-3-3-5-5-5-5-|
|-0-0-0-0-9-9-9-9-3-2-3-3-5-5-5-5-|
|-0-0-0-0-9-9-9-9-3-2-3-3-5-5-5-5-|
  ...............................
 chorus
|---------------------------------|
|---------------------------------|
|---------------------------------|
|-0-0-0-0-9-9-9-9-3-2-3-3-5-5-5-5-|
|-0-0-0-0-9-9-9-9-3-2-3-3-5-5-5-5-|
|-0-0-0-0-9-9-9-9-3-2-3-3-5-5-5-5-|

 guitar 2 chorus
|-----------------------------|
|-----------------------------|
|-11-9-11-12-11-9-11--11^~~---|
|-----------------------------|
|-----------------------------|
|-----------------------------|

 bridge
|-----------------------------------------------------------------|
|-----------------------------------------------------------------|
|-----------------------------------------------------------------|
|-9-9-9-9-9-9-9-9-5-5-5-5-5-5-5-5-9-9-9-9-9-9-9-9-5-5-5-5-5-5-5-5-|
|-9-9-9-9-9-9-9-9-5-5-5-5-5-5-5-5-9-9-9-9-9-9-9-9-5-5-5-5-5-5-5-5-|
|-9-9-9-9-9-9-9-9-5-5-5-5-5-5-5-5-9-9-9-9-9-9-9-9-5-5-5-5-5-5-5-5-|
  ...............................................................
Tap to rate this tab
 
# A B C D E F G H I J K L M N O P Q R S T U V W X Y Z