Violent Soho - Eat Your Parents tab

      intro
|------------------------------------------------------------------------|
|------------------------------------------------------------------------|
|------------------------------------------------------------------------|
|-8-8-12-8-8-12-8-12-5-5-8-5-5-8-5-8-0-0-3-0-0-3-0-0-3-3-3-3-5-5-5-5-3-0-|
|-8-8-12-8-8-12-8-12-5-5-8-5-5-8-5-8-0-0-3-0-0-3-0-0-3-3-3-3-5-5-5-5-3-0-|
|-8-8-12-8-8-12-8-12-5-5-8-5-5-8-5-8-0-0-3-0-0-3-0-0-3-3-3-3-5-5-5-5-3-0-|

      verse
|---------------------|-------------------------------|
|---------------------|-------------------------------|
|---------------------|-------------------------------|
|-7-7-7-7-7-7---------|-0-0-0-0-0-0-3-3-3-0-0-0-0-0-0-|
|-5-5-5-5-5-5---------|-0-0-0-0-0-0-3-3-3-0-0-0-0-0-0-|
|---------------------|-0-0-0-0-0-0-3-3-3-0-0-0-0-0-0-|

      chorus
|-----------------------------------------------------------------|
|-----------------------------------------------------------------|
|-----------------------------------------------------------------|
|-8-8-8-8-8-8-8-8-5-5-5-5-5-5-5-5-0-0-0-0-0-0-0-0-3-3-3-3-3-3-3-3-|
|-8-8-8-8-8-8-8-8-5-5-5-5-5-5-5-5-0-0-0-0-0-0-0-0-3-3-3-3-3-3-3-3-|
|-8-8-8-8-8-8-8-8-5-5-5-5-5-5-5-5-0-0-0-0-0-0-0-0-3-3-3-3-3-3-3-3-|

bridge

|----------------------------------------------------|
|----------------------------------------------------|
|--------7-------7--------7--------7--------7--------|
|-88--8--8-88-8-8--55-5-5---55-5-5---33-3-3---33-3-3-|
|-88-8-8---88-8-8--55-5-5---55-5-5---33-3-3---33-3-3-|
|-88-8-8---88-8-8--55-5-5---55-5-5---33-3-3---33-3-3-|
Tap to rate this tab
 
# A B C D E F G H I J K L M N O P Q R S T U V W X Y Z