Song name
# A B C D E F G H I J K L M N O P Q R S T U V W X Y Z

Violent Soho - Bombs Over Broadway tab

-------------------------------------------------------------------------------
			     BOMBS OVER BROADWAY  Violent Soho
-------------------------------------------------------------------------------
Tabbed by: Jordan Blencowe
Email: jordanblencowe@bigpond.com

This is my first tab, but its a really easy one to play.

Violent Soho XD

Tuning: Drop D (D A D G B e)


Intro - Guitars 1 and 2 (w. Distortion)
e|---------------------------|
B|---------------------------|
G|---------------------------|
D|-7------3------0------10---|
A|-7------3------0------10---|
D|-7------3------0------10---| x4


Verse - Guitar 1 (w. Distortion)
Fucked up, and the system falls
e|-------------------------|
B|-------------------------|
G|-------------------------|
D|-7------3------0------10-|
A|-7------3------0------10-|
D|-7------3------0------10-|
Pm------------------------- x4

Guitar 2 (Distortion)
e|------------|
B|------------|
G|------------|
D|-7----------|
A|-7-Let ring-|
D|-7----------|

(Clean)
I never knew you could be anything
e|----------------------|
B|-10-----10-------10---|
G|-----12------12----12-|
D|----------------------|
A|----------------------|
D|----------------------| x4

Guitar 1 (Distortion)
E|----------------------------------|
B|----------------------------------|
G|----------------------------------|
D|-7777--3333--000000------10-10-10-|
A|-7777--3333--000000------10-10-10-|
D|-7777--3333--000000------10-10-10-| x4
Pm-------------------

Chorus  Guitars 1 and 2 (Distortion)
Try and run away, fuck the system
e|----------|
B|----------|
G|----------|
D|-7------3-|
A|-7------3-|
D|-7------3-| x4

Anybody
e|----|
B|----|
G|----|
D|-10-|
A|-10-|
D|-10-|


Intro  Guitars 1 and 2 (Distortion)
Yeah!
e|-------------------------|
B|-------------------------|
G|-------------------------|
D|-7------3------0------10-|
A|-7------3------0------10-|
D|-7------3------0------10-| x4

Chorus 2  Guitars 1 and 2 (Distortion)
Run away, fuck the system
e|-------------------------|
B|-------------------------|
G|-------------------------|
D|-7------3------0------10-|
A|-7------3------0------10-|
D|-7------3------0------10| x4

Bridge  Guitars 1 and 2 (Distortion)
e|--------------|
B|--------------|
G|--------------|
D|-7------------|
A|-7---Let ring-|
D|-7------------|

Guitar 2 (Clean)
Come on lets go, youre not innocent
e|---------------------|
B|-10-----10------10---|
G|----12----12------12-|
D|---------------------|
A|---------------------|
D|---------------------|

Guitars 1 and 2 (Distortion)
e|--------------------|
B|--------------------|
G|--------------------|
D|-7------3--------10-|
A|-7------3--------10-|
D|-7------3x3-----10-| x2

Repeat Chorus 2

Both guitars finish on
e|---------------------------------------------------------------------------|
B|---------------------------------------------------------------------------|
G|---------------------------------------------------------------------------|
D|-7-------------------------------------------------------------------------|
A|-7---Let ring--------------------------------------------------------------|
D|-7-------------------------------------------------------------------------|

I dont think there will be many complaints about this tab because its so easy.
Enjoy!

************************************

| /   slide up
| \   slide down
| h   hammer-on
| p   pull-off
| ~   vibrato
| +   harmonic
| x   Mute note
| b   Bend
| pb  Pre-bend
| br  Bend release
| pbr Pre-bend release
| brb Bend release bend

************************************

Tap to rate this tab
 
# A B C D E F G H I J K L M N O P Q R S T U V W X Y Z