Song name
# A B C D E F G H I J K L M N O P Q R S T U V W X Y Z

Violent Soho - Covered In Chrome tab

Violent Soho
“Covered in Chrome”
Hungry Ghost

Tuning - Drop D Tuning (DADGBE)

Hey guys, this is mostly just the rhythm guitar part. There are some very
quiet lead lines in the chorus and stuff that I have not figured out yet,
since the song has only been out a couple days now, but for what I can hear,
here it is. Questions, comments, concerns, let me know.
Jeyqwop

Intro: (clean) (x4)
|---------------------------------|---------------------------------|
|---1-----1-----1-----1-----1-----|---1-----1-----1-----1-----1-----|
|-----2-----2-----2-----2-----2---|-----2-----2-----2-----2-----2---|
|-3-----3-----3-----3-----3-----3-|-2-----2-----2-----2-----2-----2-|
|---------------------------------|---------------------------------|
|---------------------------------|---------------------------------|

|---------------------------------|---------------------------------|
|---1-----1-----1-----1-----1-----|---1-----1-----1-----1-----1-----|
|-----2-----2-----2-----2-----2---|-----2-----2-----2-----2-----2---|
|-0-----0-----0-----0-----0-----0-|-2-----2-----2-----2-----2-----2-|
|---------------------------------|---------------------------------|
|---------------------------------|---------------------------------|

Pre-Chorus: (clean)
|----------------------------------------|--------------------------|
|----------------------------------------|--------------------------|
|----------------------------------------|--------------------------|
|-3-3-3-3-3-3-7-7-7-12-12-12-12-15-12-10-|-3-3-3-3-3-3-7-7-7-12-12\-|
|-3-3-3-3-3-3-7-7-7-12-12-12-12-15-12-10-|-3-3-3-3-3-3-7-7-7-12-12\-|
|-3-3-3-3-3-3-7-7-7-12-12-12-12-15-12-10-|-3-3-3-3-3-3-7-7-7-12-12\-|
  * * * * * * * * * *  *  *  *  *  *  *    * * * * * * * * * *  *

Main Riff: (distorted)
|----------------------------------------|
|----------------------------------------|
|----------------------------------------| (x4)
|-3-3-3-3-3-3-7-7-7-12-12-12-12-15-12-10-|
|-3-3-3-3-3-3-7-7-7-12-12-12-12-15-12-10-|
|-3-3-3-3-3-3-7-7-7-12-12-12-12-15-12-10-|

Verse: (clean)
|---------------------------------|      |---------------------------------|
|---------------------------------|      |---------------------------------|
|---------------------------------| (x7) |---------------------------------|
|-------------7-7-7-7-7-7-7-7-7-7-|      |-------------7-7-7-7-------------|
|-8-8-8-8-8-8---------------------|      |-8-8-8-8-8-8---------------------|
|---------------------------------|      |---------------------------------|
  * * * * * * * * * * * * * * * *          * * * * * * * * * *


Pre-Chorus: (distorted)
|----------------------------------------|
|----------------------------------------|
|----------------------------------------| (x4)
|-3-3-3-3-3-3-7-7-7-12-12-12-12-15-12-10-|
|-3-3-3-3-3-3-7-7-7-12-12-12-12-15-12-10-|
|-3-3-3-3-3-3-7-7-7-12-12-12-12-15-12-10-|

Chorus: (distorted)
|---------------------------------|---------------------------------|
|---------------------------------|---------------------------------|
|---------------------------------|---------------------------------| (x3)
|-3~--3-3-3~--3-7~--7-7~--7-7-7-7-|-0~--0-0-0~--0-8~--8-8~--8-8-8-8-|
|-3~--3-3-3~--3-7~--7-7~--7-7-7-7-|-0~--0-0-0~--0-8~--8-8~--8-8-8-8-|
|-3~--3-3-3~--3-7~--7-7~--7-7-7-7-|-0~--0-0-0~--0-8~--8-8~--8-8-8-8-|

Verse 2:
Guitar 1 (clean)
|---------------------------------|
|---------------------------------|
|---------------------------------| (x4)
|-------------7-7-7-7-7-7-7-7-7-7-|
|-8-8-8-8-8-8---------------------|
|---------------------------------|
  * * * * * * * * * * * * * * * *

Guitar 1 (clean)
|---------------------------------|      |---------------------------------|
|---------------------------------|      |---------------------------------|
|---------------------------------|      |---------------------------------|
|-------------7-7-7-7-7-7-7-7-7-7-|      |-------------7-7-7-7-------------|
|-8-8-8-8-8-8---------------------|      |-8-8-8-8-8-8---------------------|
|---------------------------------|      |---------------------------------|
  * * * * * * * * * * * * * * * * |        * * * * * * * * * *             |
                                  | (x3)                                   |
Guitar 2 (distorted)              |                                        |
|---------------------------------|      |---------------------------------|
|---------------------------------|      |---------------------------------|
|---------------------------------|      |---------------------------------|
|-3-3-3-3-3-3-7-7-7-7-------------|      |-3-3-3-3-3-3-7\------------------|
|-3-3-3-3-3-3-7-7-7-7-------------|      |-3-3-3-3-3-3-7\------------------|
|-3-3-3-3-3-3-7-7-7-7-------------|      |-3-3-3-3-3-3-7\------------------|
  * * * * * * * * * *                      * * * * * * * * * *    
 
Pre-Chorus: (distorted)
|----------------------------------------|
|----------------------------------------|
|----------------------------------------| (x4)
|-3-3-3-3-3-3-7-7-7-12-12-12-12-15-12-10-|
|-3-3-3-3-3-3-7-7-7-12-12-12-12-15-12-10-|
|-3-3-3-3-3-3-7-7-7-12-12-12-12-15-12-10-|

Chorus: (distorted)
|---------------------------------|---------------------------------|
|---------------------------------|---------------------------------|
|---------------------------------|---------------------------------| (x3)
|-3~--3-3-3~--3-7~--7-7~--7-7-7-7-|-0~--0-0-0~--0-8~--8-8~--8-8-8-8-|
|-3~--3-3-3~--3-7~--7-7~--7-7-7-7-|-0~--0-0-0~--0-8~--8-8~--8-8-8-8-|
|-3~--3-3-3~--3-7~--7-7~--7-7-7-7-|-0~--0-0-0~--0-8~--8-8~--8-8-8-8-|

Outro:
Guitar 1: (distorted)
|-13-//////////////////////////////|-13-//////////////////////////////|
|-16b//////////////////////////////|-16b//////////////////////////////|
|----------------------------------|----------------------------------|
|----------------------------------|----------------------------------|
|----------------------------------|----------------------------------|
|----------------------------------|----------------------------------|
                                                                      |
Guitar 2: (distorted)                                                 |
|----------------------------------|----------------------------------|
|----------------------------------|----------------------------------|
|----------------------------------|----------------------------------|
|-3-3-7-3-7-3-3-3~--3-7-3-7-3-12\--|-3-3-7-3-7-3-3-3~--3-7-3-7-3-12\--|
|-3-3-7-3-7-3-3-3~--3-7-3-7-3-12\--|-3-3-7-3-7-3-3-3~--3-7-3-7-3-12\--|
|-3-3-7-3-7-3-3-3~--3-7-3-7-3-12\--|-3-3-7-3-7-3-3-3~--3-7-3-7-3-12\--|

Guitar 1:
|-13-//////////////////////|-13-12----12---------13-12----12-------16b|
|-16b//////////////////////|-------15----15-13~--------15----15-13----|
|--------------------------|------------------------------------------|
|--------------------------|------------------------------------------|
|--------------------------|------------------------------------------|
|--------------------------|------------------------------------------|
                                                                      |
Guitar 2:                                                             |
|----------------------------------|----------------------------------|
|----------------------------------|----------------------------------|
|----------------------------------|----------------------------------|
|-3-3-7-3-7-3-3-3~--3-7-3-7-3-12\--|-3-3-7-3-7-3-3-3~--3-7-3-7-3-12\--|
|-3-3-7-3-7-3-3-3~--3-7-3-7-3-12\--|-3-3-7-3-7-3-3-3~--3-7-3-7-3-12\--|
|-3-3-7-3-7-3-3-3~--3-7-3-7-3-12\--|-3-3-7-3-7-3-3-3~--3-7-3-7-3-12\--|

Guitar 1:
|----------------------------------|----------------------------------|
|----------------------------------|----------------------------------|
|-10///////////////////////////////|-14///////////////////////////////|
|----------------------------------|----------------------------------|
|-8-///////////////////////////////|-12///////////////////////////////|
|----------------------------------|----------------------------------|
                                                                      |
Guitar 2:                                                             |
|----------------------------------|----------------------------------|
|----------------------------------|----------------------------------|
|----------------------------------|----------------------------------|
|-3-3-7-3-7-3-3-3~--3-7-3-7-3-12\--|-3-3-7-3-7-3-3-3~--3-7-3-7-3-12\--|
|-3-3-7-3-7-3-3-3~--3-7-3-7-3-12\--|-3-3-7-3-7-3-3-3~--3-7-3-7-3-12\--|
|-3-3-7-3-7-3-3-3~--3-7-3-7-3-12\--|-3-3-7-3-7-3-3-3~--3-7-3-7-3-12\--|

Guitar 1:
|----------------------------------|----------------------------------|
|----------------------------------|----------------------------------|
|-17///////////////////////////////|-19//////////////19b//////////////|
|----------------------------------|----------------------------------|
|-15///////////////////////////////|-17//////////////17b//////////////|
|----------------------------------|----------------------------------|
                                                                      |
Guitar 2:                                                             |
|----------------------------------|----------------------------------|
|----------------------------------|----------------------------------|
|----------------------------------|----------------------------------|
|-3-3-7-3-7-3-3-3~--3-7-3-7-3-12\--|-3-3-7-3-7-3-3-3~--3-7-3-7-3-12\--|
|-3-3-7-3-7-3-3-3~--3-7-3-7-3-12\--|-3-3-7-3-7-3-3-3~--3-7-3-7-3-12\--|
|-3-3-7-3-7-3-3-3~--3-7-3-7-3-12\--|-3-3-7-3-7-3-3-3~--3-7-3-7-3-12\--|

And there you have it.
Probably not perfect, but you get the gist.
Have fun, good luck.

Jeyqwop
Tap to rate this tab
 
# A B C D E F G H I J K L M N O P Q R S T U V W X Y Z