Song name
# A B C D E F G H I J K L M N O P Q R S T U V W X Y Z

Violent Soho - Neighbour Neighbour tab

Neighbour neighbour  Violent Soho

[Intro and Verse 1]

e|------------------------8----|
B|----5----------9------10--10-|
G|-----------------------------|
D|---5----------9-----10-------|
A|-3----------7------8---------|
E|-----------------------------|


[Pre Chorus]

C(4)    E     Am    Dm         x4


[Chorus]

F (4)           C(2)  G(2)              
F (4)           C(2)  G(2)              
F (2) C(2)      Dm(2) Am(2)
F(4)


[Solo] (over pre-chorus chords)


e|------------------------|--------------------------|
B|--5-3-5b-----5-3-5---1--|--5-3-5b-----5-3-5--/13---|
G|---------2--------------|---------2----------------|
D|------------------------|--------------------------|
A|------------------------|--------------------------|
E|------------------------|--------------------------|


[Verse 2] (just using pre-chorus chords)

[Chorus]

[Solo 2]

e|---8--8--8--8--8--8--8--8-|--8-8-8-8-8-8-8-8-|
B|-10-10-10-10-10-10-10-10--|-9-9-9-9-9-9-9-9--|    x4
G|--------------------------|------------------|
D|--------------------------|------------------|
A|--------------------------|------------------|
E|--------------------------|------------------|

[Solo 3] over first two lines of chorus
[Chorus x2]

 
_____________________________________________
Requested by Tom & Geordie at Laugh and Learn
Tap to rate this tab
# A B C D E F G H I J K L M N O P Q R S T U V W X Y Z