Song name
# A B C D E F G H I J K L M N O P Q R S T U V W X Y Z

Violent Work Of Art - Wasted tab

Band:  Violent Work of Art
Album: The Worst Has Yet to Come	
Song:  Wasted

Copyright (c)  Swedmetal Records - 2005 (?)
Version 1.0 - Jan 3 2006

Transcribed By: Daniel Gainer	
Email:          Wraithninja5000@yahoo.com



*

Tune to C#

Intro

|----------|
|----------|
|----------|
|----------|
|2-2-2-2-2-|
|0-0-0-0-0-|

Riff 1 

|--------------------------------------------|
|--------------------------------------------|
|--------------------------------------------|
|--------------------------------------------|
|5-7---5-7---7-5-0-5-5-7---5-7---2-2-2-2-2-2-|
|----0-----0-----0-------0-----0-0-0-0-0-0-0-|

Riff 2


|---------------------------------------|
|---------------------------------------|
|---------------------------------------|
|---------------------------------------|
|5-7---5-7---7-5-0-5-5-7---5-7---11-8-7-|
|----0-----0-----0-------0-----0--------|

Riff 1
Riff 2
Riff 1
Riff 2
Riff 1
Riff 2 (w/filler)

Filler 1 (replace 11-8-7)

|--------|
|--------|
|--------|
|--------|
|--6---3-|
|0-4-0-1-|

Riff 3 x 2 (1st palmuted, then not)

|------------------------------------------|
|------------------------------------------|
|------------------------------------------|
|------------------------------------------|
|2-2-2-2-2--2-2-2-2-2--2-2-2-2-2-8-8-8-8-8-|
|0-0-0-0-0--0-0-0-0-0--0-0-0-0-0-6-6-6-6-6-|

RIff 1
Riff 2
Riff 1
Riff 2 (with filler)

Riff 4

Riff 3 x 2

Riff 5

|-----------------------------------|
|-----------------------------------|
|-----------------------------------|
|-----------------------------------|
|2-2--10-10-13-13-12-12-4444-555555-|
|0-0--8--8--11-11-10-10-2222-333333-|

Riff 6  (all palm muted) x2

|-----------------------------------------------------------|
|-----------------------------------------------------------|
|-----------------------------------------------------------|
|-----------------------------------------------------------|
|6-6---6---6-4-4---4---4-7-7---7---7-5-5---5---5-4444-55555-|
|4-4-0-4-0-4-2-2-0-2-0-2-5-5-0-5-0-5-3-3-0-3-0-3-2222-33333-|

Riff 1
Riff 2
Riff 1
Riff 2 (with filler)

Riff 3 x 2

Riff 6 x 4 

Breakdown! x 6 (palmute first 2 times)

|----------------------------------------------------|
|----------------------------------------------------|
|----------------------------------------------------|
|------------------------------------7777------------|
|44444-44444-44444-44444-44444-44444-5555-2222-55554-|
|22222-22222-22222-22222-22222-22222------0000-33332-|

Riff 5

Riff 6 till song close
Tap to rate this tab
# A B C D E F G H I J K L M N O P Q R S T U V W X Y Z