Song name
# A B C D E F G H I J K L M N O P Q R S T U V W X Y Z

Violeta Parra - Casmiento De Negros tab

e-----3-3-3-3-3-2-1-1-1-1-1-0-0-0-3-3-3-3-2-0-0-3-2-|
B-3-3-------------3-3-------------------------------|
G---------------------------------------------------|
D---------------------------------------------------|
A---------------------------------------------------|
E---------------------------------------------------|


e-0-0-0-0-0------------------------------------------|
B----------3-1-1-0-1-1-0-0-3-3-----------------------|
G-----------------------------2-0--------------------|
D----------------------------------------------------|
A----------------------------------------------------|
E----------------------------------------------------|
Tap to rate this tab
 
# A B C D E F G H I J K L M N O P Q R S T U V W X Y Z