Viper - Evolution drum

 
G|---------------------------------------------------------|
D|---------------------------------------------------------|
A|-----------------------1-1-0-0---------------------------|
E|-2-2-0-0-1-1-0-3-3-2-2---------0-0-2-2-2-1---------------|



G|-------------------------------------------------------|
D|-------------------------------------------------------|
A|-0-0-0-0-0-0-0-0-0-0-0-0-0-0-0-1-1-1-1-1-1-5-5-5-5-5-5-|
E|-------------------------------------------------------|



G|-------------------------------------------------------|
D|-------------------------------------------------------|
A|-0-0-0-0-0-0-0-0-0-0-0-0-0-0-0-------------3-3-3-3-3-3-|
E|-------------------------------3-3-3-3-3-3-------------|



G|-------------------------|
D|-------------------------|
A|-------------------------|
E|-3--3-3-3--3-3-5--5-5-5--|



G|-----------------------------------------------------------------|
D|-----3-----3------5-----5----------------------------------------|
A|-0-0-1-0-0-1--0-0-3-0-0-3--5-5-5-5-5-5--5-5-5-5-1--1-1-1-1-1-2---|
E|-----------------------------------------------------------------|
                                                                Is the future on my side  
            

G|-------------------------------------------------------|
D|-------------------------------------------------------|   
A|-------------------------3-2-------3-2-----------------|
E|--3---2----1----0----0-0-----0-0-0-----0---------------|
    E...vo...lu...tion


G|-------------------------------------------------------|
D|-------------------------------------------------------|   
A|--3---2----1----0--------3-2-------3-2-----------------|
E|---------------------0-0-----0-0-0---------------------|
  Self..des..tru..ction


 Tudo isso acima duas vezes , e depois do refrão toque isso:
G|-------------------------------------------------------|
D|-------------------------------------------------------|   
A|----------------------3---2---1----0-------------------|
E|--3---2---1----0---------------------------------------|
  Disaese  and  fear...I walk every night... 


G|-------------------------------------------------------|
D|-------------------------------------------------------|   
A|-5--5-5-5-5-5--5-5-5-5-1--1-1-1-1-1--------------------|
E|-------------------------------------------------------|
  Come see the end 


G|---------------|
D|---------------| ponte,toque E solta algumas vezes até 
A|---------------| até começar o solo
E|-0--0-0-0-0-0--|


   solo 
G|-------------------------------------------------------|
D|-------------------------------------------------------|
A|----------------2-----1-----0--------------------------|  4x
E|-0--0-0-0-0-0-0---0-0---0-0----3-3-3-3-3-3-3-3-3-3-3-3-|


G|----------------------------------------------------------|
D|----------------------------------------------------------|
A|----------------7--6--5--7--3--3-3-3-3-3------------------|  3x 
E|-5--5-5-5-5-5-5--------------------------3-3-3-3-3-3-3-3--|


G|----------------------------------------------------------|
D|----------------------------------------------------------|
A|----------------7--6--5--7--3--3-3-3-3-3-5-5-5-5-5-5-5-5~-|
E|-5--5-5-5-5-5-5-------------------------------------------|


G|-------------------------------------------------------|
D|-------------------------------------------------------|
A|-------------------------------------------------------|
E|-------------------------------------------------------|
  Very soon we'll be trapped in our own trap 
  Our private hell. 
  When there's nothing left to destroy... 

  
G|-------------------------------------------------------|
D|-------------------------------------------------------|
A|--------------------------1--1-1-1-1-1--1-1-1-1-1------| 2x
E|-1-1-1-1-1-1-1--1-1-1-1-1------------------------------|
    Will we destroy ourselves? 


G|--------------------------------------------------------------|
D|--------------------------------------------------------------|
A|--------------------------------1--1-1-1-1-1-1-1--1-1-1-1-1-1-|
E|-3--3-3-3-3-3-3-3--3-3-3-3-3-3--------------------------------|

G|--------------------------------------------------------------|
D|--------------------------------------------------------------|
A|-7--7-7-7-7-7-7-7--7-7-7-7-7-7--4--4-4-4-4-4-4-4--4-4-4-4-4-4-|
E|--------------------------------------------------------------|
Tap to rate this tab
 
# A B C D E F G H I J K L M N O P Q R S T U V W X Y Z