Song name
# A B C D E F G H I J K L M N O P Q R S T U V W X Y Z

Virgin Black - Velvet Tongue tab

                         Virgin Black

                         Velvet Tongue

This is the tabs of the Virgin Black song Velvet Tongue from the album "Elegant...And 
There may be problems with the tabs. If you find any, notify me at- judas-iscariot@live.com

Tabbed by- DIII 503

/- slide down
b- bend
p- pull-off
~- sustained note

Intro riff:

1|----------|
2|----------|
3|----------|
4|-0------8-|
5|-0------8-| repeat 2 times
6|-0------8-|

Riff 1:

1|----------------------|--------------------------|
2|----------------------|--------------------------|
3|----------------------|--------------------------|
4|-0------------8-------|-0------------8-----------|
5|-0---/7b8b7---8---8--7|-0---/7b8b7---8---8-8-7-7-|
6|-0------------8-------|-0------------8-----------|

1|-----------------------|---------------------------|
2|-----------------------|---------------------------|
3|-----------------------|---------------------------|
4|-0------------8--------|---------------------------|
5|-0---/7b8b7---8---8-8-8|-8-8-8-8-8-8-8-8-8-7-7-7-7-|
6|-0------------8--------|---------------------------|

1|------------------|
2|------------------|
3|------------------|
4|------------------|
5|-7-7-7-7-7-7-7-7--|
6|------------------|

No guitars during verse

After verse, repeat riff 1

Riff 2:

1|------------------                          1|------------------|
2|------------------                          2|------------------|
3|------------------                          3|------------------|
4|-2p0--0--0-0-0--0-                          4|-2/3--3--0--3-8-8-|
5|-2p0--0--0-0-0--0- play 2 times followed by 5|-2/3--3--0--3-8-8-|
6|-2p0--0--0-0-0--0-                          6|-2/3--3--0--3-8-8-|

Clean part:

1|------------------|------------------|
2|----------1-------|----------1-------|
3|-------2--2-------|-------2--2-------|
4|----2-----2-------|----3-----3-------|
5|-0--------0-------|-0----------------|
6|------------------|------------------|

Repeat riff 1

I couldn't figure out the clean rhythm. Help appreciated..

Outro riff:

1|-------------------|--------------------|
2|-------------------|--------------------|
3|-------------------|--------------------|
4|-0--0-0--0-0-0-----|-3--3-3--3-3-3------|
5|-0--0-0--0-0-0twice|-3--3-3--3-3-3------|twice
6|-0--0-0--0-0-0-----|-3--3-3--3-3-3------|

1|-
2|-------------------|
3|-------------------|
4|-0~----------------|
5|-0~----------------|
6|-0~----------------|
Tap to rate this tab
 
# A B C D E F G H I J K L M N O P Q R S T U V W X Y Z