Guitaretab - guitar tabs
Song name
# A B C D E F G H I J K L M N O P Q R S T U V W X Y Z

Virgin Black - Weep For Me tab

Throughout the song until approx 1:40
Gtr 1 (acoustic)
E--------------------------------------------------------------------------|
B---------------------------------------------------------------15---------|
G--------------------------------------------------------------------14----|
D-----------------------------------------------------------12---------- --|
A-----5/7-7/8--------5/7-7/8---------5/7-7/8-------5/7-7/8-----------------|
D-0---------------0--------------0-------------0---------------------------|

Gtr 2 (electric)  ( 0:14-1:52)

E----------------------------------------------------------------------------|
B----10-8--10--10/11/10---10-------------------------------------------------|
G/7--------------------------10--9---7---0---2---/5--3/2--------------------|
D-----------------------------------------------------------3p2--3/5---------|
A----------------------------------------------------------------------------|
D----------------------------------------------------------------------------|

[ Tab from: http://www.guitaretab.com/v/virgin-black/82099.html ]
E----------------------------------------------------------------------------|
B------------------------------------10--8--1010/11/10----------------------|
G--------------------------------7--------------------------7-5-2------------|
D--3-2---5------3--2---------------------------------------------------------|
A----------------------3---5-----------------------------0-------------------|
D----------------------------------------------------------------------------|


E----------------------------------------------------------------------------|
B----------------------------------------------------------------------------|
G----------------------------------------------------------------------------|
D--3-2--3------5------3----2p0h2----------------3------2--0------------------|
A---------------------------------------3----------------------------3----5--|
D----------------------------------------------------------------------------|

Gtr 3 (electric, harmonizing guitar 2)

E----------------------------------------------------------------------------|
B----------------------------------------------------------------------------|
G---------------------------7--5---------------------------------------------|
D---7---8--7---57*-----7---------7------------------------------------------|
A-------------------------------------0--0--8-7---10--8p7--108-7-10-8-7-3-5-|
D----------------------------------------------------------------------------|

E---------------------------------------------------------------------------|
B---------------------------------------------------------------------------|
G---------------------------------------------------------------------------|
D---7---8--7---57*-----7---------------------- -------3235---7------3---|
A------------------------------------8-7--5--7--5---------------------------|
D---------------------------------------------------------------------------|
Related for Weep For Me tab