Song name
# A B C D E F G H I J K L M N O P Q R S T U V W X Y Z

Virgin Prunes - Ulakanakulotdecline And Fall tab

Virgin Prunes
Ulakanakulot/Decline and Fall
...If I die, I die
Transcribed by: Tom Quinn

Band website:
http://www.virginprunes.com/

You'll get the idea, it's pretty simple and there's not much guitar in the entire track. 
 Feel free to e-mail me (M0L3CH@yahoo.com) with any corrections.
Enjoy ;)

Tuning: Standard (E A D G B e)

ULAKANAKULOT:

INTRO A (play twice)
e|----------------------------10----------------------------10--10-10-----------12--12--||
B|--12-12-12-12-12-12-12--12------12-12-12-12-12-12-12--12------------11--11-11---------||
G|--------------------------------------------------------------------------------------||
D|--------------------------------------------------------------------------------------||
A|--------------------------------------------------------------------------------------||
E|--------------------------------------------------------------------------------------||


e|-----------12--12---------------12--12-12--------------------||
B|-11-11-11----------11-11-11--11-----------11-11-11--11--11--o||
G|-------------------------------------------------------------||
D|-------------------------------------------------------------||
A|------------------------------------------------------------o||
E|-------------------------------------------------------------||


INTRO B
e|--------------10--9-10-9--------------10--9-10-9-||
B|--12--10--12--------------12--10--12-------------||
G|-------------------------------------------------||
D|-------------------------------------------------||
A|-------------------------------------------------||
E|-------------------------------------------------||

                                                Go back to INTRO A
e|---------------------------------------------------||
B|-12--10--8--7--5-7-8-5-7-8-5-7-8-7-5-7-3-5-2-3-0---||
G|---------------------------------------------------||
D|---------------------------------------------------||
A|---------------------------------------------------||
E|---------------------------------------------------||


DECLINE AND FALL:

INTRO RIFF
e|--------------10-12-------------------10-12-------------------10-12------||
B|--12-12-12-12-------12~---12-12-12-12-------10~---12-12-12-12-------12~--||
G|-------------------------------------------------------------------------||
D|-------------------------------------------------------------------------||
A|-------------------------------------------------------------------------||
E|-------------------------------------------------------------------------||


MELODY
e|-----10-12-----------------10-12-----------------10-12------||
B|--12-------12~----------12-------10~----------12-------12~--||
G|------------------------------------------------------------||
D|------------------------------------------------------------||
A|------------------------------------------------------------||
E|------------------------------------------------------------||


The lyrics are all online, and mostly correct.  Have fun.


Key:

~ - Vibrato
Tap to rate this tab
 
# A B C D E F G H I J K L M N O P Q R S T U V W X Y Z