Song name
# A B C D E F G H I J K L M N O P Q R S T U V W X Y Z

Virgin Prunes - Pagan Lovesong tab

Virgin Prunes
Pagan Lovesong
...If I die, I die
Transcribed by: Tom Quinn

Band website:
http://www.virginprunes.com/

This is an easy one, just listen to the track to get a feel for the rhythm.  The album 
and live versions are arranged differently, but the riffs themselves don't change.  Feel 
free to e-mail me (M0L3CH@yahoo.com) with any corrections.  Enjoy ;)

Tuning: Standard (E A D G B e)

VERSE/CHORUS RIFF                                                          Repeat
e|------------------------------------------------------------------------------||
B|-----------------------------------------------------------------------------o||
G|------------------------------------------------------------------------------||
D|------------------------------------------------------------------------------||
A|--7/9-9-9-9---9-9---7/9-9-9-7---6-7/9---7/9-9-9-9---9-9---7/9-9-9-7---6-7/9--o||
E|------------------------------------------------------------------------------||


PRECHORUS/CHORUS RIFF A
e|-----------------------------------------------------------------------------||
B|-----14~-----13~-----14--------------------14~-----13~-----14----------------||
G|--11------11------11----11~--13~--14~---11------11------11----11~--13~--14~--||
D|-----------------------------------------------------------------------------||
A|-----------------------------------------------------------------------------||
E|-----------------------------------------------------------------------------||


PRECHORUS/CHORUS RIFF B
e|-------------------------------------------------------------||
B|-----14~-----13~-----14--------------------14~-----14~-------||
G|--11------11------11----11~--13~--14~---11------11------11~--||
D|-------------------------------------------------------------||
A|-------------------------------------------------------------||
E|-------------------------------------------------------------||


POST-CHORUS
e|-------------------------------------------||
B|-------------------------------------------||
G|-------------------------------------------||
D|-------------------------------------------||
A|--7/9-10~--10\9-9~\7~--7/9-10~-10\9-9~\7~--||
E|-------------------------------------------||


POST-CHORUS/PRE-VERSE
e|----------------------------------------------------------------------||
B|----------------------------------------------------------------------||
G|----------------------------------------------------------------------||
D|----------------------------------------------------------------------||
A|--9-9-9-9-9-9-9-9-9-9-9-9-9-9-9-9-9-9-9-9-9-9-9-9-9-9-9-9-9-9-9-9\(0)-||
E|----------------------------------------------------------------------||


The lyrics are all online, and mostly correct.  Have fun.


Key:

 ~ = Vibrato
 / = Slide up
 \ = Slide down
Tap to rate this tab
# A B C D E F G H I J K L M N O P Q R S T U V W X Y Z