Song name
# A B C D E F G H I J K L M N O P Q R S T U V W X Y Z

Virgin Steele - Dont Say Goodbye Tonight tab

Here is the solo Don`t say goodbye (tonight) by Virgin Steele.... Hope you like the solo 
not the hole solo but it is something, tab this solo out now because its kickass!!! the 
is 100% correct enjoy




-------------------------------------------------------------------------------
			     Don`t say goodbye (tonight) solo - Virgin Steele
-------------------------------------------------------------------------------
Tabbed by:
Email:

Tuning: Standard EADGBE

e|---------------------------------------------------------------------------|
B|---------------------------------------------------------------------------|
G|---------11-12---s9~~~~~~~~---9--11--12-----11--11-----7---4h7--s9~~~~/////|
D|---s9----------------------------------------------------------------------|
A|---------------------------------------------------------------------------|
E|---------------------------------------------------------------------------|

e|-----------0--3p---5p---3p-------------------------------------------------|
B|--0--3--5---------------------5p----3p--3p---------------------------------|
G|---------------------------------------------3p 3p----2b++++release--------|
D|---------------------------------------------------------------------------|
A|---------------------------------------------------------------------------|
E|---------------------------------------------------------------------------|

                                                       bend second fret g string with a 
harmonic and pick 2-3 times while youre doing a pinch harmonic hold the bend then release





************************************

|  /   pick scrape
|  h   hammer-on
|  p   pull-off
|  ~   vibrato
|  +   harmonic
|  x   Mute note
|  b   Bend

************************************
Tap to rate this tab
# A B C D E F G H I J K L M N O P Q R S T U V W X Y Z