Song name
# A B C D E F G H I J K L M N O P Q R S T U V W X Y Z

Virgin Steele - Rising Unchained tab

Help us improve GuitareTab! Take a short survey!
Rising Unchained-Virgin Steele album Marriage of Heaven And Hell pt2

Tabbed By: User

Tuning EADGBE

|--------------------------------------------------------------------------|
|--------------------------------------------------------------------------|
|--------------------------------------------------------------------------|
|-------------------7---4-5------------------------------------------------|
|-2---2-5---5-4---4-5--5---------------------------------------------------|
|-0---0-3---3-2---2--------------------------------------------------------|

|--------------------------------------------------------------------------|
|--------------------------------------------------------------------------|
|--------------------------------------------------------------------------|
|-------------------7---4-5------------------------------------------------|
|-2---2-5---5-4---4-5--5---------------------------------------------------|
|-0---0-3---3-2---2--------------------------------------------------------|

|---------------------------------------------------------------------------|
|---------------------------------------------------------------------------|
|-------0------------0--------------0---------------------------------------|
|-----4---4--------4---4----------4---4-----7-7---7-9-11--------------------|
|-2-2-------2----2-------2------2-------2---5-5-7-5-7--9--------------------|
|-0-----------3-3-----------2-2-----------------5---------------------------|

|---------------------------------------------------------------------------|
|---------------------------------------------------------------------------|
|-------0------------0--------------0---------------------------------------|
|-----4---4--------4---4----------4---4-----7-7---7-9-11--------------------|
|-2-2-------2----2-------2------2-------2---5-5-7-5-7--9--------------------|
|-0-----------3-3-----------2-2-----------------5---------------------------|

| /  slide up
| \  slide down
| h  hammer-on
| p  pull-off
| ~  vibrato
| +  harmonic
| x  Mute note
Related for Rising Unchained tab