Song name
# A B C D E F G H I J K L M N O P Q R S T U V W X Y Z

Virgin Steele - Weeping Of The Spirits tab

VIRGIN STEELE - THE WEEPING OF THE SPIRITS

Album: Marriage Of Heaven And Hell Part 1
Band: Virgin Steele
Track: 02 - Weeping Of The Spirits
Tabber: User
 
Intro( acoustic) pt1	pt2
|----------------------|---------------------------------------|
|----------------------|---------------------------------------|
|-------5p4--------5/7-|-------9-5-------7-9-------------------|
|-----5----------5-----|-----7---------7-----------------------|
|---5----------5-------|---7---------7-------------------------|
|-3----------3---------|-5---------5---------------------------|

 Main Riff  2x
|-------------------------------------------------------------|
|-------------------------------------------------------------|
|-------------------------------------------------------------|
|-----7--7--7------------7--7---7-----------------------------|
|-----5--5--5---8-8------5--5---5---8/10----------------------|
|-0-0--0--0---0-6-6--0-0---0--0---0-6/8-----------------------|

Verse Riff
|-------------------------------------------------------------|
|-------------------------------------------------------------|
|-------------------------------------------------------------|
|-7-7-7--10-9-5---3-3x-3---2-2-22-----------------------------|
|-5-5-5--8--7-3---1-1x-1---0-0-00-----------------------------|
|--0-0-------------0--------0-0-------------------------------|

Chorus Riff
|-------------------------------------------------------------|
|-------------------------------------------------------------|
|-------------------------------------------------------------|
|-7---------2--5------2-2-2-22----7---------2-5-7--7-7-7-77---|
|-5----5----0--3------2-2-2-22----5----5----0-3-5--5-5-5-55---|
|------3----------0-0--0-0-0-----------3------------0-0-0-----|


The Whole Song playing system goes like this


Intro
Main Riff
verse
Main Riff
verse
Main Riff
Chorus
Verse
Main Riff
Chorus
Main Riff(Backing for solo)
Chorus Riff(Backing For solo)
Chorus(official Chorus)
Main Riff
Intro

| /  slide up
| \  slide down
| h  hammer-on
| p  pull-off
| ~  vibrato
| +  harmonic
| x  Mute note
===============================================
Tap to rate this tab
# A B C D E F G H I J K L M N O P Q R S T U V W X Y Z