Song name
# A B C D E F G H I J K L M N O P Q R S T U V W X Y Z

Virginia Coalition - Green And Grey tab

Hi. This is the intro from the studio album. The 9:30 album is played an octave lower, 
only the first half is played. Anyway, I think it's close. Give it a shot.


----------------------------------------------------------------------------|
----------------------------------------------------------------------------|
----9h11--9h11---9---11--9--7---------9--11------9h11p9---7-6-7-------------|
--------------------------------9h11----------------------------------------|
----------------------------------------------------------------------------|
----------------------------------------------------------------------------|

----------------------------------------------------------------------------|
----------------------------------------------------------------------------|
----9h11--9h11---9--10p8---11--9--7---------9--11--9h11p9--7--6--7----------|
--------------------------------------9h11----------------------------------|
----------------------------------------------------------------------------|
----------------------------------------------------------------------------|
Tap to rate this tab
 
# A B C D E F G H I J K L M N O P Q R S T U V W X Y Z