Song name
# A B C D E F G H I J K L M N O P Q R S T U V W X Y Z

Virgos Merlot - Gain tab

This is the tab for this kick ass Virgos Merlot Song.
Drop D tuning ( D A D G B E )
Listen to the Song for tuning on their album:
“Signs of a Vacant Soul”


Intro + Verse
e|-----------------------------------------------------------|
b|-----------------------------------------------------------|
g|-----------------------------------------------------------|
d|-----------------------------------------------------------|
a|2-2----2-2/4-4----4-7-7----7-7-9-5-5----5-7-5--------------|
d|-----------------------------------------------------------|

Chorus
Riff 1 (“Look around, come back down”)
(work out the timing yourself, these are just the Chords)
e|-----------------------------------------------------------|
b|-----------------------------------------------------------|
g|-----------------------------------------------------------|
d|0----------10----------9----------5---------0-2-0-2--------| Repeat x2
a|0----------10----------9----------5---------0-2-0-2--------|
d|0----------10----------9----------5---------0-2-0-2--------|

Riff 2 (“Once Again”)
Guitar 1
e|-----------------------------------------------------------|
b|-----------------------------------------------------------|
g|-----------------------------------------------------------|
d|0--2--5--4--4-5-4------------------------------------------|
a|-----------------------------------------------------------|
d|-----------------------------------------------------------|

Guitar 2
e|-----------------------------------------------------------|
b|-----------------------------------------------------------|
g|-----------------------------------------------------------|
d|0--2--5--4--4-5—4--9-9--5----------------------------------|
a|0--2--5--4--4-5-4--9-9--5----------------------------------|
d|0--2--5--4--4-5-4--9-9--5----------------------------------|

Small Solo Repeated after this riff the second time around
e|-----------------------------------------------------------|
b|-----------------------------------------------------------|
g|7--6--7--9--7--6-------------------------------------------|
d|-----------------------------------------------------------|
a|-----------------------------------------------------------|
d|-----------------------------------------------------------|

www.virgosmerlot.net
Tap to rate this tab
# A B C D E F G H I J K L M N O P Q R S T U V W X Y Z