Song name
# A B C D E F G H I J K L M N O P Q R S T U V W X Y Z

Virgos Merlot - The Cycle tab

Virgos Merlot - The Cycle
From the album "Signs of a Vacant Soul"
Tabbed by: Brian Tolle

Tuning Drop C#  (C# - G# - C# - F# - A# - D#)

Guitar 1

Intro + Verse
D#|------------------------------------------|
A#|------------------------------------------|
F#|------------------------------------------|
C#|------------------------------------------|  X4
G#|-----4--3-----6--5-----0--0--3--0--0------|
C#|-----4--3-----6--5-----0--0--3--0--0------|

Guitar 2
D#|---------------------------------------------------------------|
A#|-------------------------------------8-----8-----9-----9-----9-|
F#|----0--7--0--7--0--5--0--5--0--5--7-----7-----7-----7-----7----|
C#|---------------------------------------------------------------|
G#|---------------------------------------------------------------|
C#|---------------------------------------------------------------|


Pre-Chorus
D#|-----------------------------|
A#|---------8---------10--------|
F#|-------7---------9-----------|
C#|-----5--------7--------------|  X4
G#|-----5--------7--------------|
C#|-----5--------7--------------|


Chorus
D#|---------------1-------------|
A#|-----3----3----1-------------|
F#|-----2----2----1-------------|
C#|-----0----0----0----3--------|  X4
G#|-----0----3---------3--------|
C#|-----0--------------3--------|
Tap to rate this tab
# A B C D E F G H I J K L M N O P Q R S T U V W X Y Z