Song name
# A B C D E F G H I J K L M N O P Q R S T U V W X Y Z

Virgos - Kiss My Disease tab

ViRGOS - Kiss My Disease
ja50n (buckwheats_barber@hotmail.com) Intro/chorus

	 d-----------------------------------------------)
	 b-----------------------------------------------)
	 g--2 h 4~----------11-12---7-------9---7--9-----)
	 d--0-----4~--------9--9----5-slide-7---7--7-----) X2
	 g--0---let ring----9--9----5-------7---7--7-----)
	 d-----------------------------------------------) Verse

	 -------------------------)	
	 -7-8-7------3--3--1------)	 
	 -0-0-0------0--0--0------)	 
	 -0-0-0------4--0--2------) x2	
	 -------------------------)	 
	 -------------------------)	 


 Prechorus

	 ---------------------------)	  -----------------------------
	 ---------------------------)	  -----------------------------  
	 ---11--------7-------------)	  -----7----5-----4------2-----   
	 ---9---------5-------------) x2  ---7----5-----4------2------- to Chorus
	 ---9---------5-------------)	  -7-----5----4------2---------
	 ---------------------------)	  ----------------------------- 
	   tiny heroes...                           yeah...    -ja50n
    http://www.mindspring.com/~blue_asbestos
Tap to rate this tab
# A B C D E F G H I J K L M N O P Q R S T U V W X Y Z