Song name
# A B C D E F G H I J K L M N O P Q R S T U V W X Y Z

Virus Nine - 77 Threat tab

77 Threat - Virus Nine 
------------------------------------------------------------------------------- 
not tabbed by me, just not on here yet, all credit to:
Tabbed by- punk_rock_@hotmail.com 

*=no set # of times strummed

Intro 
e----------------------------------| 
B----------------------------------| 
G-4------4-------------------------| 
D-4------4-------------------------| 
A-2------2-------------------------| 
E----------------------------------| 

Riff 
e--------------------------------------------------------| 
B-8-7-8-7-8-7-8p7---8-7-8-7-8-7-8p7-10-------------------| 
G-----------------7--------------------------------------| 
D--------------------------------------------------------| 
A--------------------------------------------------------| 
E--------------------------------------------------------| 

Verse 
e--------------------------------------------------------| 
B--------------------------------------------------------| 
G-4*----4*-----------------------------------------------| 
D-4*-5*-4*-5*-2*-----------------------------------------| 
A-2*-5*-2*-5*-2*-----------------------------------------| 
E----3*----3*-0*-----------------------------------------| 

Chorus 
e--------------------------------------------------------| 
B--------------------------------------------------------| 
G---------4*--------------4*-----------------------------| 
D-2*-4-5*-4*-7*--2*-4-5*--4*-----------------------------| 
A-2*-4-5*-2*-7*--2*-4-5*--2*-----------------------------| 
E-0*-2-3*----5*--0*-2-3*---------------------------------| 

Riff 

VErse 

Chorus 

Riff with some changes in strum pattern 2x 

e-------------------------------------I-------------------| 
B-8-7-8-7-8-7-8p7---8-7-8-7-8-7-8p7---I-------------------| 
G-----------------7-----------------7-I--9----------------| 
D-------------------------------------I-------------------| 
A-------------------------------------I-------------------| 
E-------------------------------------I-Last note---------| 

Chorus
Tap to rate this tab
 
# A B C D E F G H I J K L M N O P Q R S T U V W X Y Z