Song name
# A B C D E F G H I J K L M N O P Q R S T U V W X Y Z

Virus - Still Fighting For A Future tab



                          Still Fighting For A Future

  VERSE:
E-------------------------------------------------------------------------------
B-------------------------------------------------------------------------------
G-------------------------------------------------------------------------------
D-------------------------------------------------------------------------------
A--4-4-4-4-4-4-4-4-4---2---7-7-7-7---11-11-11-11-11-11-11-11-11-11---6--7777----
E--2-2-2-2-2-2-2-2-2---0---5-5-5-5----9--9--9--9--9--9--9--9--9--9---4--5555----

  CHORUS:
E-----------------------------------------------------
B-----------------------------------------------------
G-----------------------------------------------------
D--------------------7-7-7-7-7-7-7-7---9-9-9-9-9-9-9-9
A--4-4-4-4-4-4-4-4---5-5-5-5-5-5-5-5---7-7-7-7-7-7-7-7
E--2-2-2-2-2-2-2-2------------------------------------

SOLO:
E--8h9-8h9-8h9-8h9-8h9-9-7-55-22-3-4444-3-22-44-320------------------------------------
B---------------------------------------------------22-0-2-0-1-5h6-5h6-5h6-5h6-5-66-4-2
Tap to rate this tab
# A B C D E F G H I J K L M N O P Q R S T U V W X Y Z