Guitaretab - guitar tabs
Song name
# A B C D E F G H I J K L M N O P Q R S T U V W X Y Z
Home / V / Virus / Battles tab

Virus - Battles tab

song: Battles
band: THE VIRUS
album: "still fighting for a future"

This song is pretty easyIf you're a real virus fan (or fan of punk at all)
you should know how to play this.

chords used:

   D      G       A
e-------------------
B-------------------
G--7----------------
D--7------5-------7-
A--5------5-------7-
E---------3-------5-

verse:
D G

chorus:
A G D (D has some palm mutes goin on. you can listen to it and figure it out.)

solo:
[ Tab from: http://www.guitaretab.com/v/virus/49509.html ]
E----------------------------   
B---------------7-7-7-7------
G--7-7-7--9-9-9---------9-7--
D----------------------------
A----------------------------
E---------------------------- (play that 2 times then:

e---------------------------------
B----------10~-7h8~-8-7---8-7-----
G-7~-7-9~---------------9-----9-7~

that's it. real easy song. ill post some more virus tabs and maybe some havoc tabs
later for the few of you that care. email me with any comments, good or bad. thanx
Related for Battles tab
×
Battles