Song name
# A B C D E F G H I J K L M N O P Q R S T U V W X Y Z

Virus - Rats In The City tab

Rats in the City (Full Song - Correct)

Intro:
|-----------------------|
|-----------------------|
|------------5-7-5-4----|
|-7-10-9-10-------------|
|-0--0-0--0--3-5-3-2----|
|-----------------------|

Verse:
|-------------------|
|-------------------|
|-2---2--5-7-5-4----|
|-2---2-------------|
|-0-3-0--3-5-3-2----|
|-------------------|


Pre-Chorus:
|--------|
|--------|
|---9----|
|-2-9----|
|-2-7----|
|-0------|


Chorus:
|----------|
|----------|
|-2-5------|
|-2-5-5----|
|-0-3-5----|
|-----3----|


Solo (play chorus then verse 1 time then this, then skip to pre-chorus after this):
|----------------------------------|
|----------------------------------|
|-------------5-5-5-7-5-4-5-4-5----| x 2
|-7-5-7-5-7-5----------------------|
|----------------------------------|
|----------------------------------|

|-5-7-5-7-5-7-5-7-5----------------------|
|-------------------6-6-6-8-6-5-6-5-6----|
|----------------------------------------| x2
|----------------------------------------|
|----------------------------------------|
|----------------------------------------|


This is pretty much 100% correct,just listen to the song as you play it and the rythm 
come to you. My friends and I play this song all the time. I'm gonna try and tab out a few 
songs later on.
Tap to rate this tab
 
# A B C D E F G H I J K L M N O P Q R S T U V W X Y Z