Song name
# A B C D E F G H I J K L M N O P Q R S T U V W X Y Z

Virus - Time Is Now tab

the virus
time is now
>=slide

1st part
-----------------------------------------|
-----------------------------------------|
-----------------------------------------|
-7------------10-8-3-------2-------------|
-7--  12x  --10-8-3- 8x -2- 8x-----------|
-5-------------8--6-1-------0------------|

2nd part
---------------------------------------------------------|
---------------------------------------------------------|
---------------------------------------------------------|
3-3-3-3-3-3-3-3-3-3-3-3-3-3-3-----5-5-5-5----------------|
3-3-3-3-3-3-3-3-3-3-3-3-3-3-3-----5-5-5-5----------------|
1-1-1-1-1-1-1-1-1-1-1-1-1-1-1-----3-3-3-3----------------|

-------------------------------------------------------------|
-------------------------------------------------------------|
-------------------------------------------------------------|
3-3-3-3-3-3-3-3-3-3-3-3-=>=5-5-5-5-5-5-5-5-------------------|
3-3-3-3-3-3-3-3-3-3-3-3-=>=5-5-5-5-5-5-5-5-------------------|
1-1-1-1-1-1-1-1-1-1-1-1-=>=3-3-3-3-3-3-3-3-------------------|
Tap to rate this tab
# A B C D E F G H I J K L M N O P Q R S T U V W X Y Z