Song name
# A B C D E F G H I J K L M N O P Q R S T U V W X Y Z

Virus - Deprimoment tab

e|---------------------------------------------------|
H|---------------------------------------------------|
G|10-10-10-10-10-9-9-9-9-9-10-10-10-10-10-9-9-9-9-9--|
D|--0--0--0--0--0-0-0-0-0-0--0--0--0--0--0-0-0-0-0-0-|
A|---------------------------------------------------|
E|---------------------------------------------------|


e|---------------------------------------------------|
H|---------------------------------------------------|
G|9-9-9-9-9-10-10-10-10-10-9-9-9-9-9-10-10-10-10-10--|
D|-8-8-8-8-8--8--8--8--8--8-8-8-8-8-8--8--8--8--8--8-|
A|---------------------------------------------------|
E|---------------------------------------------------|

e|-------------------------------------|
H|-------------------------------------|
G|7-7-7-7-7-7-10-10-9-9-9-9-7-7-7-7-7--|
D|-0--0--0--0----------------0-0-0-0-0-|
A|-------------------------------------|
E|-------------------------------------|

Gez. Eduard anufriew
Tap to rate this tab
 
# A B C D E F G H I J K L M N O P Q R S T U V W X Y Z