Guitaretab - guitar tabs
Song name
# A B C D E F G H I J K L M N O P Q R S T U V W X Y Z
Home / V / Virus / They Lie tab

Virus - They Lie tab

Intro:
Bass (Not Sur):
G)------------------------------------------|
D)------------------------------------------|
A)----*7------*7---------*7------*7---------|
E)--*3--*0-*3----3--5--*3---*0-*3---3-5-3---|*:Only bass played
Guitar (follow the bass):
e)-------------------------------------|
b)-------------------------------------|
G)-------------------------------------|
D)--5-5--5-7-5-------------------------|
A)--5-5--5-7-5-------------------------|
E)--3-7--3-5-3-------------------------|
Verse:
Bass:
G)-------------------------------------|
D)-------------------------------------|
A)------------5/9--5/9-----------------|
E)--33-3-55-5--------------------------|x6
Guitar:
e)-------------------------------------|
b)-------------------------------------|
G)-------------7/9--7/9----------------|
D)--55-5-77-7--7/9--7/9----------------|
A)--55-5-77-7--5/7--5/7----------------|
E)--33-3-55-5--------------------------|x6

Bridge (riff 2)(not Sure):
Bass:
G)-------------------------------------|
D)-------------------------------------|
A)------7777777777-------33333333------|
E)-33-3-------------55-5---------------|
Guitar:
e)-------------------------------------|
b)-------------------------------------|
G)--------999999999--------555555555---|
D)--55-5--999999999--77-7--555555555---|
A)--55-5--777777777--77-7--333333333---|
E)--33-3-------------55-5--------------|

I will finish this work later ...but enjoy the intro im 100% sur about this;)

ben
Binoi_rockstar@hotmail.com
[ Tab from: http://www.guitaretab.com/v/virus/75370.html ]
Related for They Lie tab
Advertisement will be closed in 10 seconds