Song name
# A B C D E F G H I J K L M N O P Q R S T U V W X Y Z

Virus - Todays Rebellion Tomorrows Freedom tab

sorry guys, the first time i tabbed this song i think i was deaf!!
now i think it's perfect

if there's a mistake email me whats_up90m@hotmail.it

Intro (the same as the verse) figure out the rythm
e ---------------------------------------------------------|
b ---------------------------------------------------------|
g ----7--5--4----------------------------------------------|
D -7--7--5--4--5-------------------------------------------|
A -7--5--3--2--5-------------------------------------------|
E -5-----------3-------------------------------------------|


Chorus:

e ---------------------------------------------------------|
b ---------------------------------------------------------|
g ----10--9--7--10--9-----10--9--4-------------------------|
D -7--10--9--7--10--9--7--10--9--4--5----------------------|
A -7--8---7--5--8---7--7--8---7--2--5----------------------|
E -5-------------------5------------3----------------------|

Bridge:
Today’s Rebellion Tomorrow’s Freedom!

e -------------------------------------------------------------|
b -------------------------------------------------------------|
g --------10--9------------------------------------------------|
D -7/6/7--10--9------------------------------------------------|
A -7/6/7--8---7------------------------------------------------|
E -5/4/5-------------------------------------------------------|

After you play that a few times it goes:

e ----------------|
b ----------------|
g -4--------------|
D -4--5--7--------|
A -2--5--7--------|
E ----3--5--------|


"solo" (I DON'T KNOW HOW I CAN NAME THIS PART)

e ----------------------------------------------------------|
b ----------------------------------------------------------|
g ----------------5-5-5-5-4-4-4-4---------------------------|
D --7-7-7-5-7-7-7-------------------------------------------|
A ----------------------------------------------------------|
E ----------------------------------------------------------|


here's the lyrics


Each day you live in rebellion, there by guarantee
Yourself another day of freedom, another to live and
Another day to choose who your gonna be the only
Thing they can't take away from you is your will to
Survive today's rebellion is tomorrow freedom

So much tension in the air - you won't know what fucking hit you
Nobody seems to even care - no one's left there to assist you
Ignore it and will go away - you earn your rights and solve your problems
Can't deal with it another day - this fucked up system has gotta be taken down

No Society
Fuck you and your society

This world's become an evil place - people starving children dying
Who will save the human race - the system fails by always lying
Problems can't be left alone - now it's time to take some action
They're in my work and in my home - no time for fractions this is fucking war

No Society
Fuck you and your society

Today's Rebellion, Tomorrow's freedom
(These fucked up kids are going to win this war)

So much tension in the air - nobody even seems to care
Ignore it and it won't go away - I can't deal with this another day

This world's become an evil place - people starving children dying
Who will save the human race - the system fails by always lying
Problems can't be left alone - now it's time to take some action
They're in my work and in my home - no time for fractions this is fucking war

No Society
Fuck you and your society

Today's Rebellion, Tomorrow's freedom
Tap to rate this tab
# A B C D E F G H I J K L M N O P Q R S T U V W X Y Z