Song name
# A B C D E F G H I J K L M N O P Q R S T U V W X Y Z

Visa - Its All Wrong tab

-----------------------------------------------------------------
Artist: Viza (http://experienceviza.com/)
Title: It's All Wrong
Album: Made in Chernobyl
-----------------------------------------------------------------
Tabbed by: JosefOnBroadway

Tuning: Standard

...

Killer song. Haven't heard a band this awesome since SOAD.


Guitar 1

Intro/Outro (guitar 1)
             E  E  E  E  E  E  E  E     E  E  E  E  E  E  E  E   
E||--------0--------0--------|--------0--------0--------|
B||-----4--------4--------4--|-----4--------4--------4--|
G||--6--------6--------6-----|--6--------6--------6-----|
D||--------------------------|--------------------------|
A||--------------------------|--------------------------|
E||--------------------------|--------------------------|




Intro (guitar 2) [enters on the 14th repeat of Intro (guitar 1)]

   E  E   E  E   E   E   E   E
|--------------------------------|
|--9------9------12------12------|
|-----11-----11------13------13--|
|--------------------------------|
|--------------------------------|
|--------------------------------|


   S  S  S  S  S  S  S  S  S  S  S  S  S  S  S  S  
|--12-12-12-12-12-12-12-12-12-12-12-12-12-12-12-12-|
|--14-14-14-14-14-14-14-14-14-14-14-14-14-14-14-14-|
|--------------------------------------------------|
|--------------------------------------------------|
|--------------------------------------------------|
|--------------------------------------------------| (X2)




Verse (guitar 1)

I Hang with Stalkers 'cause They're 
  Q     Q     Q     Q        Q     Q     Q     Q      
-------(4)---------(4)----|-------(4)---------(4)----|
--------5-----------5-----|--------5-----------5-----|
--------6-----------6-----|--------6-----------6-----|
--------x-----------x-----|--------x-----------x-----|
--------------------------|--------------------------|
--------------------------|--------------------------|


Never a Bore!!
                                         |--3--|  |--3--|   
  Q     Q     Q     Q        Q     Q     E  E  E  E  E  E   
-------(4)---------(4)----|-------(4)----------------------|
--------5-----------5-----|--------5-----4--4--4--4--4--4--|
--------6-----------6-----|--------6-----5--5--5--5--5--5--|
--------x-----------x-----|--------x-----------------------|
--------------------------|--------------------------------|
--------------------------|--------------------------------|




Verse (guitar 2)

  Q      Q       Q       Q        Q      Q       Q       Q      
--------12------11------12-----|--------12------11------12-----|
-------(14)----(13)----(14)----|-------(14)----(13)----(14)----|
-------------------------------|-------------------------------|
-------------------------------|-------------------------------|
-------------------------------|-------------------------------|
-------------------------------|-------------------------------|


  Q      Q       Q       Q          Q       Q       Q       Q      
--------12------11------12-----|---14------12------11------12-----|
-------(14)----(13)----(14)----|--(16)----(14)----(13)----(14)----|
-------------------------------|----------------------------------|
-------------------------------|----------------------------------|
-------------------------------|----------------------------------|
-------------------------------|----------------------------------|





Chorus (guitar 1)

It's All Wrong!!
  Q     Q     Q     Q        Q     Q     Q     Q      
-------(0)---------(0)----|-------(0)---------(0)----|
--------7-----------7-----|--------7-----------7-----|
--------6-----------6-----|--------6-----------6-----|
--------4-----------4-----|--------4-----------4-----|
--------------------------|--------------------------|
--------------------------|--------------------------|


  Q     Q     Q     Q        Q     Q     Q     Q      
-------(0)---------(0)----|-------(0)---------(0)----|
--------7-----------7-----|--------7-----------7-----|
--------6-----------6-----|--------6-----------6-----|
--------4-----------4-----|--------4-----------4-----|
--------------------------|--------------------------|
--------------------------|--------------------------|


  Q     Q     Q     Q        Q     Q     Q     Q      
-------(4)---------(4)----|-------(4)---------(4)----|
--------5-----------5-----|--------5-----------5-----|
--------6-----------6-----|--------6-----------6-----|
--------x-----------x-----|--------x-----------x-----|
--------------------------|--------------------------|
--------------------------|--------------------------|


                                         |--3--|  |--3--|   
  Q     Q     Q     Q        Q     Q     E  E  E  E  E  E   
-------(4)---------(4)----|-------(4)----------------------|
--------5-----------5-----|--------5-----4--4--4--4--4--4--|
--------6-----------6-----|--------6-----5--5--5--5--5--5--|
--------x-----------x-----|--------x-----------------------|
--------------------------|--------------------------------|
--------------------------|--------------------------------|




Chorus (guitar 2)

         |-----3-----|             |-----3-----|    
  Q      E     E     E     Q       E     E     E    
--------14----14----14----14------12----12----12---|
-------(16)--(16)--(16)--(16)----(14)--(14)--(14)--|
---------------------------------------------------|
---------------------------------------------------|
---------------------------------------------------|
---------------------------------------------------|


            |-----3-----|            |----3----|                           
    Q       E     E     E     Q      E    E    E       H         H         
---12------11----11----11----11------9----9----9---|---9------------------|
--(14)----(12)--(12)--(12)--(12)----(9)--(9)--(9)--|--(9)-----------------|
---------------------------------------------------|----------------------|
---------------------------------------------------|----------------------|
---------------------------------------------------|----------------------|
---------------------------------------------------|----------------------|


                     |-----3-----|             |-----3-----|    
              Q      E     E     E     Q       E     E     E    
-----------|--------12----12----12----12------11----11----11---|
-----------|-------(14)--(14)--(14)--(14)----(12)--(12)--(12)--|
-----------|---------------------------------------------------|
-----------|---------------------------------------------------|
-----------|---------------------------------------------------|
-----------|---------------------------------------------------|


          |----3---|                                                            
    Q     E   E    E    Q      Q         W                                      
---11-----9---9----9----9------9-----|---9-----------------|
--(12)----9--(9)--(9)--(9)----(9)----|--(9)----------------|
-------------------------------------|---------------------|
-------------------------------------|---------------------|
-------------------------------------|---------------------|
-------------------------------------|---------------------|




Refrain A

Suddenly!!
     (Let ring)
  W                   W          W                   W
--4----------------|----------|--4----------------|--4----------------|
--5----------------|----------|--4----------------|--4----------------|
--6----------------|----------|--6----------------|--5----------------|
--6----------------|----------|--6----------------|--6----------------|
--4----------------|----------|--4----------------|--6----------------|
-------------------|----------|-------------------|--x----------------|


Refrain B (guitar 1)

There's Light that Hides your Face 
  Q     Q     Q     Q        Q     Q     Q     Q      
-------(4)---------(4)----|-------(4)---------(4)----|
--------5-----------5-----|--------5-----------5-----|
--------6-----------6-----|--------6-----------6-----|
--------x-----------x-----|--------x-----------x-----|
--------------------------|--------------------------|
--------------------------|--------------------------|

Erase it
  Q     Q     Q     Q        Q     Q     Q     Q      
-------(4)---------(4)----|-------(4)---------(4)----|
--------5-----------5-----|--------5----------(5)----|
--------6-----------6-----|--------6----------(6)----|
--------x-----------x-----|--------x-----------x-----|
--------------------------|--------------------------|
--------------------------|--------------------------|




Refrain B (guitar 2)

   TP        TP          TP        TP
   H         H            H         H         
|--9--------11--------|--12--------14--------|
|---------------------|----------------------|
|---------------------|----------------------|
|---------------------|----------------------|
|---------------------|----------------------|
|---------------------|----------------------|


   TP        TP           TP       TP                            
   H         H            H        H                             
--12--------11--------|--12--------9--------|
----------------------|---------------------|
----------------------|---------------------|
----------------------|---------------------|
----------------------|---------------------|
----------------------|---------------------|




Solo A (guitar 1)

  E  E  E  E  E  E  E  E     E  E  E  E  E  E  E  E     E  E  E  E  E  E  Q     
--------------------------|--------------------------|-------------------------|
--------------------------|--------------------------|-------------------------|
--------------------------|--------------------------|-------------------------|
--------------------------|--------------6-----------|--5-----------------6----|
--4-----------------6-----|--7-----------------------|-------------------------|
--------------------------|--------------------------|-------------------------|


  Q    Q    Q    Q       E  E  E  E  E  E  E  E     E  E  E  E  E  E  E  E   
----------------------|--------------------------|--------------------------|
----------------------|--------------------------|--------------------------|
----------------------|--------------------------|--------------------------|
--7----6----5----6----|--------------------------|--------------------------|
----------------------|--4-----------------6-----|--7-----------4-----------|
----------------------|--------------------------|--------------------------|


  W                   
----------------------|
----------------------|
----------------------|
----------------------|
--3-------------------|
--4-------------------|
  (bend up and down the first time)




Solo A (guitar 2) [enters the 2nd repeat of Solo A (guitar 1)]

  E  E  E  E  E  E  E  E     E  E  E  E  Q      E  E   
--------------------------|---------------------------|
--------------5-----------|---------------------------|
--6--5--6--8-----8--6--5--|--6------------------------|
--------------------------|--------6-----6br----L-----|
--------------------------|---------------------------|
--------------------------|---------------------------|


  E  E  E  E  E  E  E  E     E  E   E  E  Q     Q     
--------------------------|--------------------------|
--------5-----------4-----|---------9-----8~---------|
--------------------------|--6--L/-------------------|
--5-----------4-----------|--------------------------|
--------------------------|--------------------------|
--------------------------|--------------------------|


  E  E  E  E  E  E  E  E     E  E  E  E  Q      E  E   
--------------------------|---------------------------|
--------------5-----------|---------------------------|
--6--5--6--8-----8--6--5--|--6------------------------|
--------------------------|--------6-----6br----------|
--------------------------|---------------------------|
--------------------------|---------------------------|


  E  E  E  E  E  E  E  E     E  E  Q    Q    Q       E  E  E  E  E  E  E  E   
--------------------------|-----------------------|--------------------------|
--------5-----------4-----|--2--------------------|--5--4--5--7--9--7--5--4--|
--------------------------|-----------------------|--6--5--6--8--9--8--6--5--|
--5-----------4-----------|-----------------------|--------------------------|
--------------------------|-----------------------|--------------------------|
--------------------------|-----------------------|--------------------------|


  E  E  E  E  Q      Q       E  E  E  E  E  E  E  E     E  E   E  E  Q    Q     
--------------------------|--------4-----------3-----|-------------------------|
--5-----------------------|--------5-----------4-----|--5--L/--9-----8---------|
--6-----6-----6br---------|--5-----------4-----------|--6--L/--9-----9---------|
--------6-----6br---------|--5-----------4-----------|-------------------------|
--------------------------|--------------------------|-------------------------|
--------------------------|--------------------------|-------------------------|


  E  E  E  E  E  E  E  E     E  E  E  E  Q      Q     
--------------------------|--------------------------|
--5--4--5--7--9--7--5--4--|--5-----------------------|
--6--5--6--8--9--8--6--5--|--6-----6-----6br---------|
--------------------------|--------6-----6br---------|
--------------------------|--------------------------|
--------------------------|--------------------------|


  E  E  E  E  E  E  E  E     E  E  Q    Q    Q     
--------4-----------3-----|--0--------------------|
--------5-----------4-----|--2--------------------|
--5-----------4-----------|-----------------------|
--5-----------4-----------|-----------------------|
--------------------------|-----------------------|
--------------------------|-----------------------|




Bridge

La, La la la....
   PM  PM  PM      PM  PM  PM  PM     PM  PM  PM      PM  PM  PM  PM  
   E   E   E   E   E   E   E   E      E   E   E   E   E   E   E   E   
--------------14------------------|--------------12------------------|
----------------------------------|----------------------------------|
--14------14------14------14------|--13------13------13------13------|
------16--------------16------16--|------14--------------14------14--|
----------------------------------|----------------------------------|
----------------------------------|----------------------------------|


   PM  PM  PM      PM  PM  PM  PM    PM  PM PM    PM  PM PM  PM  
   E   E   E   E   E   E   E   E     E   E  E  E  E   E  E   E   
--------------11------------------|------------9----------------|
----------------------------------|-----------------------------|
--11------11------11------11------|--9------9-----9------9------|
------13--------------13------13--|-----11-----------11-----11--|
----------------------------------|-----------------------------|
----------------------------------|-----------------------------|


   PM  PM  PM      PM  PM  PM  PM     PM  PM  PM      PM  PM  PM  PM  
   E   E   E   E   E   E   E   E      E   E   E   E   E   E   E   E   
--------------14------------------|--------------12------------------|
----------------------------------|----------------------------------|
--14------14------14------14------|--13------13------13------13------|
------16--------------16------16--|------14--------------14------14--|
----------------------------------|----------------------------------|
----------------------------------|----------------------------------|


   PM  PM  PM      PM  PM  PM  PM     PM    PM    PM         
   E   E   E   E   E   E   E   E      Q     Q     Q    Q     
--------------11------------------|-------------------------|
----------------------------------|-------------------------|
--11------11------11------11------|-------------------------|
------13--------------13------13--|--11----10----11---------|
----------------------------------|-------------------------|
----------------------------------|-------------------------|




{Order}

Intro/Outro x8 [guitar 2 enters 14th repeat]
Verse x4
Chorus
Verse x2
Chorus
Refrain A
Refrain B
Refrain A 
Verse x3
Refrain A
Refrain B
Refrain A
Solo A x3 [guitar 2 enters 2nd repeat]
Bridge
Verse x4
Chorus
Refrain A
Refrain B
Refrain A
Intro/Outro x4 (or so)
Tap to rate this tab
# A B C D E F G H I J K L M N O P Q R S T U V W X Y Z