Song name
# A B C D E F G H I J K L M N O P Q R S T U V W X Y Z

Visaal - Noorea tab

Hey guyz..

the tabz for thiz song goes...

Intro:

e|-------0-------------0--------------0-------------0------|
B|-------0-------------0--------------0-------------0------|
G|-----6-----6-------4-----4--------2-----2-------4-----4--|
D|---6-----6-------4-----4--------2-----2-------4-----4----|
A|-4-------------2--------------0-------------2------------|
E|---------------------------------------------------------|x4

Chords strumed:

e|---0------0-----0---|
B|---0------0-----0---|
G|---6------4-----2---|
D|---6------4-----2---|
A|---4------2-----0---|
E|---4------2-----0---|

Solo:

e|-------------------------------9-------------|
B|---------10----------------------12-10-------|
G|-9-11-13----13-11-9----9-11-13---------13-11-|
D|--------------------13-----------------------|
A|---------------------------------------------|
E|---------------------------------------------|x4

Then:
(contineued frm G|---13-11--)

e|----------------------------------------9-11-12--|
B|----------------------------------10-12----------|
G|---------------------------9-11-13---------------|
D|-13-14--14-13-11-9----9-11-----------------------|
A|-------------------12----------------------------|
E|-------------------------------------------------|

enjoy n plzz rate..
Tap to rate this tab
# A B C D E F G H I J K L M N O P Q R S T U V W X Y Z