Song name
# A B C D E F G H I J K L M N O P Q R S T U V W X Y Z

Visconde - Lebruce chords

Highlighted       Show chord diagrams
Tom: D
                

Intro: D9  D  D9  D  G
E|-0-0-2-2-2--0-0-2-2-2--0-0-2-2-2--5-5-0--|
B|-1-1-2-2-2--1-1-1-1-1--3-3-3-3-3--3-3-3--|
G|-2-2-2-2-2--2-2-2-2-2--2-2-0-0-0--0-0-2--|    (2x)
D|-0-0-0-0-0--0-0-0-0-0--xxxxxxxxxxxxxxxxxx|
A|xxxxxxxxxxxxxxxxxxxxxxxxxxxxxxxxxxxxxxxxx|
E|xxxxxxxxxxxxxxxxxxxxxxx3-3-3-3-3--3-3-3--|


Queria, por um dia, conseguir mudar
Deixar de ser errante, por um dia, no andar
Eu tenho uma ferida de cada lugar
Em que deixei guardada a solido

  Em7      A          A9              Bm        F#m7
e agora, o rosto no espelho eu no conheo mais
          Em7     A       A9              Bm
no tem volta, e tudo que me resta  prometer

Em7                      A          A9            Bm     F#m7
no pretendo te iludir, dizer isso vai durar pra sempre
Em7                      A            A9            Bm    F#m7
no pretendo te enganar at o meu corao no bater mais
Em7                             A           A9             Bm    F#m7
h muito tempo eu aprendi, nem mesmo a nossa morte  permanente
Em7                        A                        Bm
o tempo vai se encarregar de tirar a minha e a tua paz
D11 Em7       G            D
no, eu no sei lidar
D11 Em7       G            (emenda rapidamente com o riff abaixo)
no, eu no sei amar.

E|--------------------------2--|
B|--------------------------3--|
G|-2-4-6-7-6-4--2-4-6-7-6-4-2--|
D|-0------------0-----------0--|
A|-----------------------------|
E|-----------------------------|



  Em7  A   Bm   F#m7   Em7 A   Bm7  F#m7   Em7 A   Bm F#m7    Em7    A     Bm
E|-----------------------------------------------------------------------------|
B|--------------------------------7--------------------------------------------|
G|-4-7-4-6-2-4---------4-7-4-6-4------------4-7-4-6-2-4-2------4-6-7-4-6-4-2-4-|
D|-----------------------------------------------------------------------------|
A|-----------------------------------------------------------------------------|
E|-----------------------------------------------------------------------------|
Tap to rate this tab
# A B C D E F G H I J K L M N O P Q R S T U V W X Y Z