Guitaretab - guitar tabs
Song name
# A B C D E F G H I J K L M N O P Q R S T U V W X Y Z

Vision Divine - La Vita Fugge tab

#----------------------------------PLEASE NOTE---------------------------------#
#This file is the author's own work and represents their interpretation of the #
#song. You may only use this file for private study, scholarship, or research. #
#------------------------------------------------------------------------------#

LA VITA FUGGE
As recorded by Vision Divine
(From the 2004 Album STREAM OF CONSCIOUSNESS)

Transcribed by Olaf Thorsen - jFp
	

Words by Magnani Music by Smirnoff, Magnani - Luppi

Gtr I (Bb Eb Ab Db Gb Bb Eb) - 'Olaf Thorsen'
Gtr II (Bb Eb Ab Db Gb Bb Eb) - 'Olaf Thorsen II'

 Intro
  Q=167
                         A5
 4/4
  Gtr I
  Wx2          H.      E S S
|------------|---------------|
|------------|---------------|
|------------|---------------|
|------------|-----------7-7-|
|------------|-----------7-7-|
|------------|-----------5-5-|
|------------|---------------|


    A5         N.C.
                   PM----------------------------|
    W           S  S  S  S S S S S S S S S S S S S
||-----------|-------------------------------------|
||-----------|-------------------------------------|
||o----------|-------------------------------------|
||--7--------|-------------------------------------|
||o-7--------|-10-10-10-10-8-8-8-8-7-7-7-7-5-5-5-5-|
||--5--------|-------------------------------------|
||-----------|-------------------------------------|


  G5         N.C.
              PM-------------------------------|
  W           S  S  S  S S S S S S S S S S S S S
|----------|----------------------------------------|
|----------|----------------------------------------|
|----------|----------------------------------------|
|-5--------|----------------------------------------|
|-5--------|-10-10-10-10-8-8-8-8-7-7-7-7-5-5-5-5----|
|-3--------|----------------------------------------|
|----------|----------------------------------------|


  F5         N.C.
              PM----------------------------------
  W           S  S  S  S S S S S S S S S S S S S
|----------|-------------------------------------|
|----------|-------------------------------------|
|----------|-------------------------------------|
|-3--------|-------------------------------------|
|-3--------|-10-10-10-10-8-8-8-8-7-7-7-7---------|
|-1--------|-----------------------------8-8-8-8-|
|----------|-------------------------------------|


  E5
 -----------------------------------------|
  E E E E E E E E   E E E E S S S S S S S S
|-----------------|-------------------------|
|-----------------|-------------------------|
|-----------------|-------------------------|
|-----------------|-------------------------|
|-----------------|-------------------------|
|-7---7-7---7-7---|-7-7---------------------|
|-5---5-5---5-5---|-5-5---5-8-6-5-5-8-6-5-5-|


  A5         N.C.
              PM-------------------------------|
  W           S  S  S  S S S S S S S S S S S S S
|----------|-------------------------------------|
|----------|-------------------------------------|
|----------|-------------------------------------|
|-7--------|-------------------------------------|
|-7--------|-10-10-10-10-8-8-8-8-7-7-7-7-5-5-5-5-|
|-5--------|-------------------------------------|
|----------|-------------------------------------|


  G5
              PM-------------------------------|
  W           S  S  S  S S S S S S S S S S S S S
|----------|----------------------------------------|
|----------|----------------------------------------|
|----------|----------------------------------------|
|-5--------|----------------------------------------|
|-5--------|-10-10-10-10-8-8-8-8-7-7-7-7-5-5-5-5----|
|-3--------|----------------------------------------|
|----------|----------------------------------------|


  F5         N.C.
              PM----------------------------------
  W           S  S  S  S S S S S S S S S S S S S
|----------|-------------------------------------|
|----------|-------------------------------------|
|----------|-------------------------------------|
|-3--------|-------------------------------------|
|-3--------|-10-10-10-10-8-8-8-8-7-7-7-7---------|
|-1--------|-----------------------------8-8-8-8-|
|----------|-------------------------------------|


  E5
 ---------------------|     PM------------|
  E E E E E E E E   E E E E S S S S S S S S
|-----------------|-------------------------|
|-----------------|-------------------------|
|-----------------|-------------------------|
|-----------------|-------------------------|
|-----------------|-------------------------|
|-7---7-7---7-7---|-7-7---7-----------------|
|-5---5-5---5-5---|-5-5---5-5-5-5-5-5-5-5-5-|


                                                       Pre-Verse (2nd time Verse)
                                                        A5
   ~~~~~~~PM----------------------------------|           PM--------------------------|
   E  +E  E E E E E E   E E E E S S S S S S S S         S S S S S S S S S S S S S S S S
|---------------------|--------------------------||-||----------------------------------|
|---------------------|--------------------------||-||----------------------------------|
|---------------------|-------------------------o||-||o---------------------------------|
|---------------------|--------------------------||-||--7-------------------------------|
|-[7]-(7)-------------|-------------------------o||-||o---0-0-0-0-0-0-0-0-0-0-0-0-0-0-0-|
|---------7-7---7-7---|-7-7---7------------------||-||----------------------------------|
|---------5-5---5-5---|-5-5---5-8-7-5-5-8-7-5-5--||-||----------------------------------|
|
| Gtr II
|  W                    W                               W
|---------------------|--------------------------||-||----------------------------------|
|---------------------|--------------------------||-||----------------------------------|
|---------------------|-------------------------o||-||o---------------------------------|
|---------------------|--------------------------||-||----------------------------------|
|---------------------|-------------------------o||-||o---------------------------------|
|---------------------|--------------------------||-||----------------------------------|
|---------------------|--------------------------||-||----------------------------------|


       PM       PM      PM       PM
   E   S    E   S   E   S   E    S   S   S   S   S
|----------------------------------------------------|
|----------------------------------------------------|
|----------------------------------------------------|
|-10-------12-------9------10--(10)--9h=10p==9-------|
|------0--------0-------0--------0--------------10---|
|----------------------------------------------------|
|----------------------------------------------------|
|
|      PM       PM      PM       PM
|  E   S    E   S   E   S   E    S   S   S   S   S
|----------------------------------------------------|
|----------------------------------------------------|
|-(9)-----(10)-----(7)-----(9)--(9)-(7)h(9)p(7)------|
|------------------------------------------------9---|
|-----(0)------(0)-----(0)------(0)------------------|
|----------------------------------------------------|
|----------------------------------------------------|


  Am
    PM--------------------------|
  S S S S S S S S S S S S S S S S
|---------------------------------|
|---------------------------------|
|---------------------------------|
|-7-------------------------------|
|---0-0-0-0-0-0-0-0-0-0-0-0-0-0-0-|
|---------------------------------|
|---------------------------------|
|
| W
|---------------------------------|
|---------------------------------|
|---------------------------------|
|---------------------------------|
|---------------------------------|
|---------------------------------|
|---------------------------------|


                                                     F5    G5        E5   F5
       PM       PM      PM       PM                      PM      PM     PM      PM
   E   S    E   S   E   S   E    S   S   S   S   S    Q  E  H    E   Q  E  H    E
|--------------------------------------------------|---------------|--------------|
|--------------------------------------------------|---------------|--------------|
|--------------------------------------------------|---------------|--------------|
|-10-------12-------9------10--(10)--9h=10p==9-----|-10----12------|-9----10------|
|------0--------0-------0--------0--------------10-|--8--0-10----0-|-7--0--8----0-|
|--------------------------------------------------|---------------|--------------|
|--------------------------------------------------|---------------|--------------|
|
|      PM       PM      PM       PM
|  E   S    E   S   E   S   E    S   S   S   S   S    W              W
|--------------------------------------------------|---------------|--------------|
|--------------------------------------------------|---------------|--------------|
|-(9)-----(10)-----(7)-----(9)--(9)-(7)h(9)p(7)----|---------------|--------------|
|------------------------------------------------9-|---------------|--------------|
|-----(0)------(0)-----(0)------(0)----------------|---------------|--------------|
|--------------------------------------------------|---------------|--------------|
|--------------------------------------------------|---------------|--------------|


  G5
      PM---------------------------------------|
   S  S  S  S  S  S  S  S  S  S  S  S  S  S  S  S
|-------------------------------------------------|
|-------------------------------------------------|
|-------------------------------------------------|
|-12----------------------------------------------|
|-10-10-10-10-10-10-10-10-10-10-10-10-10-10-10-10-|
|-------------------------------------------------|
|-------------------------------------------------|
|
| Gtr II
|  W
|-------------------------------------------------|
|-------------------------------------------------|
|-------------------------------------------------|
|-------------------------------------------------|
|-------------------------------------------------|
|-------------------------------------------------|
|-------------------------------------------------|


   S  E.        H.
|----------------------------------||
|----------------------------------||
|---------------------------------o||
|-12-------------------------------||
|-10------------------------------o||
|----------------------------------||
|----------------------------------||
|
|  S  S   S  S  S   S S  S E Q.
|-13-12--10------------------------||
|-----------13-12--10-9------------||
|-----------------------10-9------o||
|----------------------------------||
|---------------------------------o||
|----------------------------------||
|----------------------------------||


 2nd Verse
  A5
    PM--------------------------|      PM   PM  PM     PM
  S S S S S S S S S S S S S S S S    E S  E S E S  E   S  S  S S  S
|---------------------------------|---------------------------------|
|---------------------------------|---------------------------------|
|---------------------------------|---------------------------------|
|-7-------------------------------|-10---12---9---10-(10)-9h10p9----|
|---0-0-0-0-0-0-0-0-0-0-0-0-0-0-0-|----0----0---0------0---------10-|
|---------------------------------|---------------------------------|
|---------------------------------|---------------------------------|
|
| W                                  W
|---------------------------------|---------------------------------|
|---------------------------------|---------------------------------|
|---------------------------------|---------------------------------|
|---------------------------------|---------------------------------|
|---------------------------------|---------------------------------|
|---------------------------------|---------------------------------|
|---------------------------------|---------------------------------|


    PM--------------------------|      PM   PM  PM     PM
  S S S S S S S S S S S S S S S S    E S  E S E S  E   S  S  S S  S
|---------------------------------|---------------------------------|
|---------------------------------|---------------------------------|
|---------------------------------|---------------------------------|
|-7-------------------------------|-10---12---9---10-(10)-9h10p9----|
|---0-0-0-0-0-0-0-0-0-0-0-0-0-0-0-|----0----0---0------0---------10-|
|---------------------------------|---------------------------------|
|---------------------------------|---------------------------------|
|
|                                      PM   PM  PM     PM
| W                                  E S  E S E S  E   S  S  S S  S
|---------------------------------|---------------------------------|
|---------------------------------|---------------------------------|
|---------------------------------|--9---10---7----9--(9)-7h=9p7----|
|---------------------------------|-------------------------------9-|
|---------------------------------|----0----0---0------0------------|
|---------------------------------|---------------------------------|
|---------------------------------|---------------------------------|


  F5    G5        E5   F5        G5
      PM      PM     PM      PM    PM--------------------------|
   Q  E  H    E   Q  E  H    E   S S S S S S S S S S S S S S S S
|---------------|--------------|---------------------------------|
|---------------|--------------|---------------------------------|
|---------------|--------------|---------------------------------|
|-10----12------|-9----10------|---------------------------------|
|--8--0-10----0-|-7--0--8----0-|-5-------------------------------|
|---------------|--------------|-3-3-3-3-3-3-3-3-3-3-3-3-3-3-3-3-|
|---------------|--------------|---------------------------------|


  G5
    PM--------------------------|
  S S S S S S S S S S S S S S S S
|------------------------------------|
|------------------------------------|
|------------------------------------|
|------------------------------------|
|-5----------------------------------|
|-3-3-3-3-3-3-3-3-3-3-3-3-3-3-3-3----|
|------------------------------------|


 Chorus
  $
  C                 F      G                 Em
  W          +H     H      W          +H     H
|----------|-------------|----------|-------------|
|----------|-------------|----------|-------------|
|----------|-------------|----------|-------------|
|----------|-------------|----------|-------------|
|----------|--------3----|-5--------|-(5)----2----|
|-3--------|-(3)----1----|-3--------|-(3)----0----|
|-1--------|-(1)---------|----------|-------------|


  F          Em         Dm         N.C.
                                   PM---------------------------------|
  W          W          W          S S S S S S S S S S  S  S  S  S  S  S
|----------|----------|----------|----------------------------------------|
|----------|----------|----------|----------------------------------------|
|----------|----------|----------|----------------------------------------|
|----------|----------|----------|----------------------------------------|
|-3--------|-2--------|----------|-5-5-7-7-7-7-8-8-8-8-10-10-10-10-12-12--|
|-1--------|-0--------|-5--------|----------------------------------------|
|----------|----------|-3--------|----------------------------------------|


  C5                F5     G5                E5
  W          +H     H      W          +H     H
|----------|-------------|----------|-------------|
|----------|-------------|----------|-------------|
|----------|-------------|----------|-------------|
|----------|-------------|----------|-------------|
|----------|--------3----|-5--------|-(5)----2----|
|-3--------|-(3)----1----|-3--------|-(3)----0----|
|-1--------|-(1)---------|----------|-------------|


  F5         E5         N.C.
                        PM-------------------------------
  W          W          S S S S S S S S S S S S S S S S
|----------|----------|---------------------------------|
|----------|----------|---------------------------------|
|----------|----------|---------------------------------|
|----------|----------|---------------------------------|
|-3--------|-2--------|-5-5-7-7-8-8-7-7-5-5-7-7-8-8-7-7-|
|-1--------|-0--------|---------------------------------|
|----------|----------|---------------------------------|


                           To Coda
 -------------------------------|
  S S S S S S S S S S S S S S S S
|------------------------------------|
|------------------------------------|
|------------------------------------|
|------------------------------------|
|-5-5-7-7-8-8-7-7-5-5-7-7-8-8-7-7----|
|------------------------------------|
|------------------------------------|


 Interlude I
  A5
   PM-------------------------------------------------------------------------------
   S    +E        S     E       S    E.             S    S     S    S    S    S
|----------------------------------------------------------------------------------|
|----------------------------------------------------------------------------------|
|----------------------------------------------------------------------------------|
|----------------------------------------------------------------------------------|
|--7--------------7-------------7--------------------------------------------------|
|--5----(5)-------5-------------5-------------------5----5-----5----5----5----5----|
|----------------------------------------------------------------------------------|
|
| Gtr II
|  |--------5--------|  |-------5--------|  |-------5-------|  |--------5--------|
|  S  S      S  S    S  S  S  S    S     S  S  S  S    S    S  S  S    S    S    S
|--------------10---12-13-12-10-----------------------10---12-13-12---10-----------|
|-10-12-----13--------------------13----12-10-12-13------------------------13---12-|
|----------------------------------------------------------------------------------|
|----------------------------------------------------------------------------------|
|----------------------------------------------------------------------------------|
|----------------------------------------------------------------------------------|
|----------------------------------------------------------------------------------|


 -----------------------------------------------------------------------|
  S    +E       S     E      S    E.            S   S     S    S   S    S
|----------------------------------------------------------------------------|
|----------------------------------------------------------------------------|
|----------------------------------------------------------------------------|
|----------------------------------------------------------------------------|
|-7-------------7------------7-----------------------------------------------|
|-5----(5)------5------------5------------------5---5-----5----5---5----5----|
|----------------------------------------------------------------------------|
|
| |-------5--------|  |-------5-------| |------5-------|  |-------5--------|
| S  S      S S    S  S  S S    S     S S  S  S   S    S  S  S   S    S    S
|-------------8---10-12-10-8----------------------8---10-12-10---8-----------|
|-9-10-----12------------------12----10-9-10-12----------------------12---10-|
|----------------------------------------------------------------------------|
|----------------------------------------------------------------------------|
|----------------------------------------------------------------------------|
|----------------------------------------------------------------------------|
|----------------------------------------------------------------------------|


   PM-------------------------------------------------------------------------------
   S    +E        S     E       S    E.             S    S     S    S    S    S
|----------------------------------------------------------------------------------|
|----------------------------------------------------------------------------------|
|----------------------------------------------------------------------------------|
|----------------------------------------------------------------------------------|
|--7--------------7-------------7--------------------------------------------------|
|--5----(5)-------5-------------5-------------------5----5-----5----5----5----5----|
|----------------------------------------------------------------------------------|
|
|  |--------5--------|  |-------5--------|  |-------5-------|  |--------5--------|
|  S  S      S  S    S  S  S  S    S     S  S  S  S    S    S  S  S    S    S    S
|--------------10---12-13-12-10-----------------------10---12-13-12---10-----------|
|-10-12-----13--------------------13----12-10-12-13------------------------13---12-|
|----------------------------------------------------------------------------------|
|----------------------------------------------------------------------------------|
|----------------------------------------------------------------------------------|
|----------------------------------------------------------------------------------|
|----------------------------------------------------------------------------------|


 ---------------------------------------------|
   S +E      S  E     S  E.       S  S E    S S
|------------------------------------------------|
|------------------------------------------------|
|------------------------------------------------|
|------------------------------------------------|
|--7---------7--------7--------------------------|
|--5-(5)-----5--------5-----------5--5-5----5-5--|
|------------------------------------------------|
|
|  S  S   S  S  S  S  S  S   S  S S  S S  S S S
|-15-13--12-10-13-12-10--------------------------|
|-----------------------13--12-10-9-10-9---------|
|----------------------------------------10-9-9--|
|------------------------------------------------|
|------------------------------------------------|
|------------------------------------------------|
|------------------------------------------------|


   Pre-Verse (2nd time Verse)
    A5
      PM--------------------------|      PM   PM  PM     PM
    S S S S S S S S S S S S S S S S    E S  E S E S  E   S  S  S S  S
||----------------------------------|---------------------------------|
||----------------------------------|---------------------------------|
||o---------------------------------|---------------------------------|
||--7-------------------------------|-10---12---9---10-(10)-9h10p9----|
||o---0-0-0-0-0-0-0-0-0-0-0-0-0-0-0-|----0----0---0------0---------10-|
||----------------------------------|---------------------------------|
||----------------------------------|---------------------------------|
|
|   Gtr II
|   W                                  W
||----------------------------------|---------------------------------|
||----------------------------------|---------------------------------|
||o---------------------------------|---------------------------------|
||----------------------------------|---------------------------------|
||o---------------------------------|---------------------------------|
||----------------------------------|---------------------------------|
||----------------------------------|---------------------------------|


    PM--------------------------|      PM   PM  PM     PM
  S S S S S S S S S S S S S S S S    E S  E S E S  E   S  S  S S  S
|---------------------------------|------------------------------------|
|---------------------------------|------------------------------------|
|---------------------------------|------------------------------------|
|-7-------------------------------|-10---12---9---10-(10)-9h10p9-------|
|---0-0-0-0-0-0-0-0-0-0-0-0-0-0-0-|----0----0---0------0---------10----|
|---------------------------------|------------------------------------|
|---------------------------------|------------------------------------|
|
|                                      PM   PM  PM     PM
| W                                  E S  E S E S  E   S  S  S S  S
|---------------------------------|------------------------------------|
|---------------------------------|------------------------------------|
|---------------------------------|--9---10---7----9--(9)-7h=9p7-------|
|---------------------------------|-------------------------------9----|
|---------------------------------|----0----0---0------0---------------|
|---------------------------------|------------------------------------|
|---------------------------------|------------------------------------|


  F5    G5        E5   F5        G5
      PM      PM     PM      PM      PM---------------------------------------|
   Q  E  H    E   Q  E  H    E    S  S  S  S  S  S  S  S  S  S  S  S  S  S  S  S
|---------------|--------------|-------------------------------------------------|
|---------------|--------------|-------------------------------------------------|
|---------------|--------------|-------------------------------------------------|
|-10----12------|-9----10------|-12----------------------------------------------|
|--8--0-10----0-|-7--0--8----0-|-10-10-10-10-10-10-10-10-10-10-10-10-10-10-10-10-|
|---------------|--------------|-------------------------------------------------|
|---------------|--------------|-------------------------------------------------|
|
|  W              W               W
|---------------|--------------|-------------------------------------------------|
|---------------|--------------|-------------------------------------------------|
|---------------|--------------|-------------------------------------------------|
|---------------|--------------|-------------------------------------------------|
|---------------|--------------|-------------------------------------------------|
|---------------|--------------|-------------------------------------------------|
|---------------|--------------|-------------------------------------------------|


  1.                                  2.
                                                                        D.S. al Coda
                                       G5
                                           PM---------------------------------------|
   S  E.        H.                      S  S  S  S  S  S  S  S  S  S  S  S  S  S  S  S
|----------------------------------||--------------------------------------------------|
|----------------------------------||--------------------------------------------------|
|---------------------------------o||--------------------------------------------------|
|-12-------------------------------||--12----------------------------------------------|
|-10------------------------------o||--10-10-10-10-10-10-10-10-10-10-10-10-10-10-10-10-|
|----------------------------------||--------------------------------------------------|
|----------------------------------||--------------------------------------------------|
|
|  S  S   S  S  S   S S  S E Q.         W
|-13-12--10------------------------||--------------------------------------------------|
|-----------13-12--10-9------------||--------------------------------------------------|
|-----------------------10-9------o||--------------------------------------------------|
|----------------------------------||--------------------------------------------------|
|---------------------------------o||--------------------------------------------------|
|----------------------------------||--------------------------------------------------|
|----------------------------------||--------------------------------------------------|


 Interlude II
  &
  Am
   W
|-------------------------------------------------------------|
|-------------------------------------------------------------|
|-------------------------------------------------------------|
|--7----------------------------------------------------------|
|--7----------------------------------------------------------|
|--5----------------------------------------------------------|
|-------------------------------------------------------------|
|
|  |-----5-----|  |-----5-----|  |-----5-----|  |-----5-----|
|  S  S  S  S  S  S  S  S  S  S  S  S  S  S  S  S  S  S  S  S
|----------10-12-13-12-10----------------10-12-13-12-10-------|
|-10-12-13----------------13-12-10-12-13----------------13-12-|
|-------------------------------------------------------------|
|-------------------------------------------------------------|
|-------------------------------------------------------------|
|-------------------------------------------------------------|
|-------------------------------------------------------------|


  G#mb5
  W
|-------------------------------------------------------|
|-------------------------------------------------------|
|-------------------------------------------------------|
|-6-----------------------------------------------------|
|-5-----------------------------------------------------|
|-4-----------------------------------------------------|
|-------------------------------------------------------|
|
| |----5-----|  |----5-----| |----5-----|  |----5-----|
| S  S  S S  S  S  S S  S  S S  S  S S  S  S  S S  S  S
|---------8-10-12-10-8---------------8-10-12-10-8-------|
|-9-10-12--------------12-10-9-10-12--------------12-10-|
|-------------------------------------------------------|
|-------------------------------------------------------|
|-------------------------------------------------------|
|-------------------------------------------------------|
|-------------------------------------------------------|


  F5
   W
|-------------------------------------------------------------|
|-------------------------------------------------------------|
|-------------------------------------------------------------|
|--3----------------------------------------------------------|
|--3----------------------------------------------------------|
|--1----------------------------------------------------------|
|-------------------------------------------------------------|
|
|  |-----5-----|  |-----5-----|  |-----5-----|  |-----5-----|
|  S  S  S  S  S  S  S  S  S  S  S  S  S  S  S  S  S  S  S  S
|----------10-12-13-12-10----------------10-12-13-12-10-------|
|-10-12-13----------------13-12-10-12-13----------------13-12-|
|-------------------------------------------------------------|
|-------------------------------------------------------------|
|-------------------------------------------------------------|
|-------------------------------------------------------------|
|-------------------------------------------------------------|

[ Tab from: http://www.guitaretab.com/v/vision-divine/113696.html ]
  E5
   W
|---------------------------------------------||
|---------------------------------------------||
|---------------------------------------------||
|--2------------------------------------------||
|--2------------------------------------------||
|--0------------------------------------------||
|---------------------------------------------||
|
|  S  S  S  S  S  S  S  S  S  S S  S S  S S S
|-15-13-12-10-13-12-10------------------------||
|----------------------13-12-10-9-10-9--------||
|--------------------------------------10-9-9-||
|---------------------------------------------||
|---------------------------------------------||
|---------------------------------------------||
|---------------------------------------------||


  Bbm
   W
|-------------------------------------------------------------|
|-------------------------------------------------------------|
|-------------------------------------------------------------|
|--8----------------------------------------------------------|
|--8----------------------------------------------------------|
|--6----------------------------------------------------------|
|-------------------------------------------------------------|
|
|  |-----5-----|  |-----5-----|  |-----5-----|  |-----5-----|
|  S  S  S  S  S  S  S  S  S  S  S  S  S  S  S  S  S  S  S  S
|----------11-13-14-13-11----------------11-13-14-13-11-------|
|-11-13-14----------------14-13-11-13-14----------------14-13-|
|-------------------------------------------------------------|
|-------------------------------------------------------------|
|-------------------------------------------------------------|
|-------------------------------------------------------------|
|-------------------------------------------------------------|


  Amb5
   W
|----------------------------------------------------------|
|----------------------------------------------------------|
|----------------------------------------------------------|
|--7-------------------------------------------------------|
|--6-------------------------------------------------------|
|--5-------------------------------------------------------|
|----------------------------------------------------------|
|
|  |----5-----|  |----5-----|  |----5-----|  |----5-----|
|  S  S  S S  S  S  S S  S  S  S  S  S S  S  S  S S  S  S
|----------9-11-13-11-9----------------9-11-13-11-9--------|
|-10-11-13--------------13-11-10-11-13--------------13-11--|
|----------------------------------------------------------|
|----------------------------------------------------------|
|----------------------------------------------------------|
|----------------------------------------------------------|
|----------------------------------------------------------|


  Gb5
   W
|-------------------------------------------------------------|
|-------------------------------------------------------------|
|-------------------------------------------------------------|
|--4----------------------------------------------------------|
|--4----------------------------------------------------------|
|--2----------------------------------------------------------|
|-------------------------------------------------------------|
|
|  |-----5-----|  |-----5-----|  |-----5-----|  |-----5-----|
|  S  S  S  S  S  S  S  S  S  S  S  S  S  S  S  S  S  S  S  S
|----------11-13-14-13-11----------------11-13-14-13-11-------|
|-11-13-14----------------14-13-11-13-14----------------14-13-|
|-------------------------------------------------------------|
|-------------------------------------------------------------|
|-------------------------------------------------------------|
|-------------------------------------------------------------|
|-------------------------------------------------------------|


  F5
   W
|-------------------------------------------------||
|-------------------------------------------------||
|-------------------------------------------------||
|--3----------------------------------------------||
|--3----------------------------------------------||
|--1----------------------------------------------||
|-------------------------------------------------||
|
|  S  S  S  S  S  S  S  S  S  S  S  S  S  S  S  S
|-16-14-13-11-14-13-11----------------------------||
|----------------------14-13-11-10-11-10----------||
|----------------------------------------11-10-10-||
|-------------------------------------------------||
|-------------------------------------------------||
|-------------------------------------------------||
|-------------------------------------------------||


  Am
   PM-------------------------------------------------------------------
   E       E        E       E        E       E        E       E
|---------------------------------------------------------------------||
|---------------------------------------------------------------------||
|---------------------------------------------------------------------||
|---------------------------------------------------------------------||
|---------------------------------------------------------------------||
|--5-------5--------5-------5--------5-------5--------5-------7-------||
|---------------------------------------------------------------------||
|
|  |------5------|  |------5------|  |------5------|  |------5------|
|  S  S  S    S  S  S  S  S    S  S  S  S  S    S  S  S  S  S    S  S
|------------10-12-13-12-10--------------------10-12-13-12-10---------||
|-10-12-13--------------------13-12-10-12-13--------------------13-12-||
|---------------------------------------------------------------------||
|---------------------------------------------------------------------||
|---------------------------------------------------------------------||
|---------------------------------------------------------------------||
|---------------------------------------------------------------------||


  G#mb5
 -------------------------------------------------------|
  E       E       E      E       E       E       E      E
|------------------------------------------------------------------|
|------------------------------------------------------------------|
|------------------------------------------------------------------|
|------------------------------------------------------------------|
|------------------------------------------------------------------|
|-4-------4-------4------4-------4-------4-------4------5----------|
|------------------------------------------------------------------|
|
| |-----5------|  |-----5------| |-----5------|  |-----5------|
| S  S  S   S  S  S  S S    S  S S  S  S   S  S  S  S S    S  S
|-----------8-10-12-10-8-------------------8-10-12-10-8------------|
|-9-10-12------------------12-10-9-10-12------------------12-10----|
|------------------------------------------------------------------|
|------------------------------------------------------------------|
|------------------------------------------------------------------|
|------------------------------------------------------------------|
|------------------------------------------------------------------|


  F5
   PM------------------------------------------------------------------
   E       E        E       E        E       E        E       E
|---------------------------------------------------------------------|
|---------------------------------------------------------------------|
|---------------------------------------------------------------------|
|---------------------------------------------------------------------|
|---------------------------------------------------------------------|
|--1-------1--------1-------1--------1-------1--------1-------3-------|
|---------------------------------------------------------------------|
|
|  |------5------|  |------5------|  |------5------|  |------5------|
|  S  S  S    S  S  S  S  S    S  S  S  S  S    S  S  S  S  S    S  S
|------------10-12-13-12-10--------------------10-12-13-12-10---------|
|-10-12-13--------------------13-12-10-12-13--------------------13-12-|
|---------------------------------------------------------------------|
|---------------------------------------------------------------------|
|---------------------------------------------------------------------|
|---------------------------------------------------------------------|
|---------------------------------------------------------------------|


  E5
 -----------------------------------------|
   E     E     E     E     S  S E    S  S E
|---------------------------------------------||
|---------------------------------------------||
|---------------------------------------------||
|---------------------------------------------||
|---------------------------------------------||
|--0-----0-----0-----0-----0--0-0----0--0-0---||
|---------------------------------------------||
|
|  S  S  S  S  S  S  S  S  S  S S  S S  S S S
|-15-13-12-10-13-12-10------------------------||
|----------------------13-12-10-9-10-9--------||
|--------------------------------------10-9-9-||
|---------------------------------------------||
|---------------------------------------------||
|---------------------------------------------||
|---------------------------------------------||


  Bbm
   PM------------------------------------------------------------------
   E       E        E       E        E       E        E       E
|---------------------------------------------------------------------|
|---------------------------------------------------------------------|
|---------------------------------------------------------------------|
|---------------------------------------------------------------------|
|---------------------------------------------------------------------|
|--6-------6--------6-------6--------6-------6--------6-------8-------|
|---------------------------------------------------------------------|
|
|  |------5------|  |------5------|  |------5------|  |------5------|
|  S  S  S    S  S  S  S  S    S  S  S  S  S    S  S  S  S  S    S  S
|------------11-13-14-13-11--------------------11-13-14-13-11---------|
|-11-13-14--------------------14-13-11-13-14--------------------14-13-|
|---------------------------------------------------------------------|
|---------------------------------------------------------------------|
|---------------------------------------------------------------------|
|---------------------------------------------------------------------|
|---------------------------------------------------------------------|


  Amb5
 ---------------------------------------------------------|
   E       E       E      E        E       E       E      E
|--------------------------------------------------------------------|
|--------------------------------------------------------------------|
|--------------------------------------------------------------------|
|--------------------------------------------------------------------|
|--------------------------------------------------------------------|
|--5-------5-------5------5--------5-------5-------5------6----------|
|--------------------------------------------------------------------|
|
|  |-----5------|  |-----5------|  |-----5------|  |-----5------|
|  S  S  S   S  S  S  S S    S  S  S  S  S   S  S  S  S S    S  S
|------------9-11-13-11-9--------------------9-11-13-11-9------------|
|-10-11-13------------------13-11-10-11-13------------------13-11----|
|--------------------------------------------------------------------|
|--------------------------------------------------------------------|
|--------------------------------------------------------------------|
|--------------------------------------------------------------------|
|--------------------------------------------------------------------|


  Gb5
   PM------------------------------------------------------------------
   E       E        E       E        E       E        E       E
|---------------------------------------------------------------------|
|---------------------------------------------------------------------|
|---------------------------------------------------------------------|
|---------------------------------------------------------------------|
|---------------------------------------------------------------------|
|--2-------2--------2-------2--------2-------2--------2-------4-------|
|---------------------------------------------------------------------|
|
|  |------5------|  |------5------|  |------5------|  |------5------|
|  S  S  S    S  S  S  S  S    S  S  S  S  S    S  S  S  S  S    S  S
|------------11-13-14-13-11--------------------11-13-14-13-11---------|
|-11-13-14--------------------14-13-11-13-14--------------------14-13-|
|---------------------------------------------------------------------|
|---------------------------------------------------------------------|
|---------------------------------------------------------------------|
|---------------------------------------------------------------------|
|---------------------------------------------------------------------|


  F5
 -------------------------------------------|
   E     E     E     E     S  S  E     S  S  E
|--------------------------------------------------||
|--------------------------------------------------||
|--------------------------------------------------||
|--------------------------------------------------||
|--------------------------------------------------||
|--1-----1-----1-----1-----1--1--1-----1--1--1-----||
|--------------------------------------------------||
|
|  S  S  S  S  S  S  S  S  S  S  S  S  S  S  S  S
|-16-14-13-11-14-13-11-----------------------------||
|----------------------14-13-11-10-11-10-----------||
|----------------------------------------11-10-10--||
|--------------------------------------------------||
|--------------------------------------------------||
|--------------------------------------------------||
|--------------------------------------------------||


 Guitar Solo I
  Em                 D5                  E5
                                               PM-----------------------------------------
   W                  W                   E    S    S  S S    S    S  S  S S S S S  S  S
|------------------|-------------------|-------------------------------------------------|
|------------------|-------------------|-------------------------------------------------|
|------------------|-------------------|-------------------------------------------------|
|--9---------------|--7----------------|--9----------------------------------------------|
|--7---------------|--5----------------|--7----7----7--7-7----7----7--7--7-7-7-7-7--7--7-|
|------------------|-------------------|-------------------------------------------------|
|------------------|-------------------|-------------------------------------------------|
|
|                                                                     ~~~
|                                         |---3---|    |----3----|
|  H.         E  E    H        H          E  E    E    E    E    E    Q.            S  S
|-12------------15-|-17b19----17b19----|-19-15-------------------------------------------|
|-15b17------17----|-------------------|---------17--------------------------------------|
|------------------|-------------------|--------------16---------------------------------|
|------------------|-------------------|-------------------17---14---14------------12-14-|
|------------------|-------------------|-------------------------------------------------|
|------------------|-------------------|-------------------------------------------------|
|------------------|-------------------|-------------------------------------------------|


                                   D
 -----------------------------|
   S  S  S  S  S    S    S    S     H
|-----------------------------------------------------|
|-----------------------------------------------------|
|-----------------------------------------------------|
|----------------------------------12-----------------|
|--7--7--7--7--7----7----7----7-----9-----------------|
|-----------------------------------------------------|
|-----------------------------------------------------|
|
|              |--------5--------|
|  S  S  S  S  S  S    S    S    S  Q      E  S  S
|-----------------------------------------------------|
|-----------------------------------------------------|
|-12------------------12---13---14-14b16r=14-12-14----|
|----14-13-12-13-14-----------------------------------|
|-----------------------------------------------------|
|-----------------------------------------------------|
|-----------------------------------------------------|


 Keyboard Solo I
  Gm                                             D
      PM------------------------------------|
   E  S  S  S  S  S  S  S  S  S  S  S  S  S  S    W
|----------------------------------------------|-----------|
|----------------------------------------------|-----------|
|----------------------------------------------|-----------|
|-12-------------------------------------------|-12--------|
|-10-10-10-10-10-10-10-10-10-10-10-10-10-10-10-|--9--------|
|----------------------------------------------|-----------|
|----------------------------------------------|-----------|
|
|  W                                              W
|----------------------------------------------|-----------|
|----------------------------------------------|-----------|
|-12-------------------------------------------|-----------|
|----------------------------------------------|-----------|
|----------------------------------------------|-----------|
|----------------------------------------------|-----------|
|----------------------------------------------|-----------|


  Gm                                             A
      PM------------------------------------|
   E  S  S  S  S  S  S  S  S  S  S  S  S  S  S    W
|----------------------------------------------|-------||
|----------------------------------------------|-------||
|----------------------------------------------|-------||
|-12-------------------------------------------|-14----||
|-10-10-10-10-10-10-10-10-10-10-10-10-10-10-10-|-12----||
|----------------------------------------------|-------||
|----------------------------------------------|-------||
|
|  W                                              W
|----------------------------------------------|-------||
|----------------------------------------------|-------||
|----------------------------------------------|-------||
|----------------------------------------------|-------||
|----------------------------------------------|-------||
|----------------------------------------------|-------||
|----------------------------------------------|-------||


 Guitar Solo II
  Am
        PM------------------------------------------|
   E    S  S    S  S  S    S  S  S    S  S  S  S  S  S
|------------------------------------------------------||
|------------------------------------------------------||
|------------------------------------------------------||
|-14---------------------------------------------------||
|-12---12-12---12-12-12---12-12-12---12-12-12-12-12-12-||
|------------------------------------------------------||
|------------------------------------------------------||
|
|  \1/     \1/        \1/        \1/
|                                ~~~~
|  E.      E.         E.         Q             S  S  S
|-19------15-------------------------------------------||
|--------------------17--------------------------------||
|-------------------------------16------------14-15-16-||
|------------------------------------------------------||
|------------------------------------------------------||
|------------------------------------------------------||
|------------------------------------------------------||


  G#mb5
            PM-------------------------------------------------------|
   E        S     S     S     S     S     S     S   S  S  S  S  S  S  S
|-----------------------------------------------------------------------|
|-----------------------------------------------------------------------|
|-----------------------------------------------------------------------|
|-12--------------------------------------------------------------------|
|-11-------11----11----11----11----11----11----11--11-11-11-11-11-11-11-|
|-----------------------------------------------------------------------|
|-----------------------------------------------------------------------|
|
|  |--------5--------|  |---------5----------|
|  S  S  S     S     S  S  S     S     S     S  Q.                 S  S
|-----------------------------------------------------------------------|
|-----------------------------------------------------------------------|
|-17-16-15----14----------------------------14-14-----------------------|
|-------------------16-15-14----15----16--------------------------12-14-|
|-----------------------------------------------------------------------|
|-----------------------------------------------------------------------|
|-----------------------------------------------------------------------|


  Am
   W
|-------------------------------------------------|
|-------------------------------------------------|
|-------------------------------------------------|
|-14----------------------------------------------|
|-12----------------------------------------------|
|-------------------------------------------------|
|-------------------------------------------------|
|
|  S  S  S  S  S  S  S  S  S  S  S  S  S  S  S  S
|-------------------12-14-15-14-12----------------|
|----------12-13-15----------------15-13-12-------|
|-12-13-14----------------------------------14-13-|
|-------------------------------------------------|
|-------------------------------------------------|
|-------------------------------------------------|
|-------------------------------------------------|


  F5
         PM--------------------------------|
   E     S  S  S  S  S  S   S  S S S S S S S
|--------------------------------------------|
|--------------------------------------------|
|--------------------------------------------|
|-10-----------------------------------------|
|--8-----8--8--8--8--8--8---8--8-8-8-8-8-8-8-|
|--------------------------------------------|
|--------------------------------------------|
|
|  S  S  S  S  S  S  S  S   H
|--------------------------------------------|
|--------------------------------------------|
|-12----------------12-13-[14]---------------|
|----14-13-12-13-14--------------------------|
|--------------------------------------------|
|--------------------------------------------|
|--------------------------------------------|


 Keyboard Solo II
  D5         D5         E5
                        PM-------------------------------
  W          W          S S S S S S S S S S S S S S S S
|----------|----------|---------------------------------|
|----------|----------|---------------------------------|
|----------|----------|---------------------------------|
|-7--------|-7--------|---------------------------------|
|-5--------|-5--------|---------------------------------|
|----------|----------|-0-0-0---0-0-0---0-0-0---0-0-0---|
|----------|----------|---------------------------------|


 -------------------------------|
  S S S S S S S S S S S S S S S S
|------------------------------------|
|------------------------------------|
|------------------------------------|
|------------------------------------|
|------------------------------------|
|-0-0-0---0-0-0---0-0-0---0-0-0------|
|------------------------------------|


   Spoken Verse
    $$
    A5
      PM--------------------------|
    S S S S S S S S S S S S S S S S
||----------------------------------|
||----------------------------------|
||o---------------------------------|
||--7-------------------------------|
||o---0-0-0-0-0-0-0-0-0-0-0-0-0-0-0-|
||----------------------------------|
||----------------------------------|


     PM   PM  PM     PM               PM--------------------------|
   E S  E S E S  E   S  S  S S  S   S S S S S S S S S S S S S S S S
|---------------------------------|---------------------------------|
|---------------------------------|---------------------------------|
|---------------------------------|---------------------------------|
|-10---12---9---10-(10)-9h10p9----|-7-------------------------------|
|----0----0---0------0---------10-|---0-0-0-0-0-0-0-0-0-0-0-0-0-0-0-|
|---------------------------------|---------------------------------|
|---------------------------------|---------------------------------|


                                                   To Dbl. Coda
                                    F5    G5        E5   F5
     PM   PM  PM     PM                 PM      PM     PM      PM
   E S  E S E S  E   S  S  S S  S    Q  E  H    E   Q  E  H    E
|---------------------------------|---------------|---------------||
|---------------------------------|---------------|---------------||
|---------------------------------|---------------|--------------o||
|-10---12---9---10-(10)-9h10p9----|-10----12------|-9----10-------||
|----0----0---0------0---------10-|--8--0-10----0-|-7--0--8----0-o||
|---------------------------------|---------------|---------------||
|---------------------------------|---------------|---------------||
|
| Gtr II
|    PM   PM  PM     PM
|  E S  E S E S  E   S  S  S S  S    W              W
|---------------------------------|---------------|---------------||
|---------------------------------|---------------|---------------||
|--9---10---7----9--(9)-7h=9p7----|---------------|--------------o||
|-------------------------------9-|---------------|---------------||
|----0----0---0------0------------|---------------|--------------o||
|---------------------------------|---------------|---------------||
|---------------------------------|---------------|---------------||


  G5                                G5
    PM--------------------------|     PM--------------------------|
  S S S S S S S S S S S S S S S S   S S S S S S S S S S S S S S S S
|---------------------------------|---------------------------------|
|---------------------------------|---------------------------------|
|---------------------------------|---------------------------------|
|---------------------------------|---------------------------------|
|-5-------------------------------|-5-------------------------------|
|-3-3-3-3-3-3-3-3-3-3-3-3-3-3-3-3-|-3-3-3-3-3-3-3-3-3-3-3-3-3-3-3-3-|
|---------------------------------|---------------------------------|


 Chorus
  C5                F5     G5                E5
  W          +H     H      W          +H     H
|----------|-------------|----------|-------------|
|----------|-------------|----------|-------------|
|----------|-------------|----------|-------------|
|----------|-------------|----------|-------------|
|----------|--------3----|-5--------|-(5)----2----|
|-3--------|-(3)----1----|-3--------|-(3)----0----|
|-1--------|-(1)---------|----------|-------------|


  F5         E5         G5         N.C.
                                   PM---------------------------------|
  W          W          W          S S S S S S S S S S  S  S  S  S  S  S
|----------|----------|----------|----------------------------------------|
|----------|----------|----------|----------------------------------------|
|----------|----------|----------|----------------------------------------|
|----------|----------|----------|----------------------------------------|
|-3--------|-2--------|----------|-5-5-7-7-7-7-8-8-8-8-10-10-10-10-12-12--|
|-1--------|-0--------|-5--------|----------------------------------------|
|----------|----------|-3--------|----------------------------------------|


  C5                F5     G5                E5
  W          +H     H      W          +H     H
|----------|-------------|----------|-------------|
|----------|-------------|----------|-------------|
|----------|-------------|----------|-------------|
|----------|-------------|----------|-------------|
|----------|--------3----|-5--------|-(5)----2----|
|-3--------|-(3)----1----|-3--------|-(3)----0----|
|-1--------|-(1)---------|----------|-------------|


  F5         E5         N.C.
                        PM-------------------------------
  W          W          S S S S S S S S S S S S S S S S
|----------|----------|---------------------------------|
|----------|----------|---------------------------------|
|----------|----------|---------------------------------|
|----------|----------|---------------------------------|
|-3--------|-2--------|-5-5-7-7-8-8-7-7-5-5-7-7-8-8-7-7-|
|-1--------|-0--------|---------------------------------|
|----------|----------|---------------------------------|


               D.S.S. al Dbl. Coda
 -------------------------------|
  S S S S S S S S S S S S S S S S
|------------------------------------||
|------------------------------------||
|------------------------------------||
|------------------------------------||
|-5-5-7-7-8-8-7-7-5-5-7-7-8-8-7-7----||
|------------------------------------||
|------------------------------------||


 End
                                        H.=H
  &&
  G5                  G5                  A5G5C5B5F5G5
                   3/4                   4/4
  PM------------------------------------------------|
                                          |-3-| |-3-|
  E E E E E E E E   E E S S S S S S S S   Q Q Q Q Q Q
|-----------------|---------------------|-------------|
|-----------------|---------------------|-------------|
|-----------------|---------------------|-------------|
|-----------------|---------------------|-----5-4-----|
|-5-5---5-5---5-5-|---5-----------------|-7-5-3-2-3-5-|
|-3-3---3-3---3-3-|---3-7-5-3-3-7-5-3-3-|-5-3-----1-3-|
|-----------------|---------------------|-------------|


  C5B5D5F5 E5C5   A5         A5
  PM---------|
  |-3-|  |-3--|
  Q Q Q  Q Q  Q   W          Q  H.
|---------------|----------|----------*|
|---------------|----------|----------*|
|---------------|----------|----------*|
|-5-4-7-10-9----|----------|----------*|
|-3-2-5--8-7-10-|-7--------|-7--------*|
|-------------8-|-5--------|-5--------*|
|---------------|----------|----------*|



Duration Legend
---------------
W - whole; H - half; Q - quarter; E - 8th; S - 16th; T - 32nd; X - 64th; a - acciaccatura
+ - note tied to previous; . - note dotted; .. - note double dotted
Uncapitalized letters represent notes that are staccato (1/2 duration)
Irregular groupings are notated above the duration line
Duration letters will always appear directly above the note/fret number it represents the
duration for.  Duration letters with no fret number below them represent rests.  Multi-
bar rests are notated in the form Wxn, where n is the number of bars to rest for.  Low
melody durations appear below the staff

Tablature Legend
----------------
 h   - hammer-on
 p   - pull-off
 b   - bend
 pb  - pre-bend
 r   - bend release (if no number after the r, then release immediately)
 /\  - slide into or out of (from/to "nowhere")
 s   - legato slide
 S   - shift slide
 - natural harmonic
[n]  - artificial harmonic
n(n) - tapped harmonic
 ~   - vibrato
 tr  - trill
 T   - tap
 TP  - trem. picking
 PM  - palm muting
\n/  - tremolo bar dip; n = amount to dip
 \n  - tremolo bar down
 n/  - tremolo bar up
/n\  - tremolo bar inverted dip
 =   - hold bend; also acts as connecting device for hammers/pulls
 <> - volume swell (louder/softer)
 x   - on rhythm slash represents muted slash
 o   - on rhythm slash represents single note slash

Misc Legend
-----------
 |  - bar
||  - double bar
||o - repeat start
o|| - repeat end
*|  - double bar (ending)
 :  - bar (freetime)
 $  - Segno
 &  - Coda
Tempo markers -  = BPM(8/16=s8/s16), where s8 = swing 8ths, s16 = swing 16ths

Advertisement will be closed in 10 seconds