Song name
# A B C D E F G H I J K L M N O P Q R S T U V W X Y Z

Vision Of Disorder - Through My Eyes tab

Band- Vision Of Disorder
Song- Through My Eyes

Intro riff:
effect:distortion (duh)

----------------------------------------------------------------|
---------------------------xx--xx-------------------------------|
-------------------6-/-9---10--10--10\-8---8-/-9---8___---------|
-------------------6-/-9---10--10--10\-8---8-/-9---8___---------|
---x---x---x---x---4-/-7---8---8---8-\-6---6-/-7---6___---------|
---0---0---0---0---4-/-7---8---8---8-\-6---6-/-7---6___---------|

This may not be exact (it sounds like it though)
play this riff a couple of times

-----------------------------------------------------------------|
---------------------------xx--xx--------------------------------|
-------------------6-/-9---10--10--10\-8---8---8-\-7---7---7-\-6-|
-------------------6-/-9---10--10--10\-8---8---8-\-7---7---7-\-6-|
---x---x---x---x---4-/-7---8---8---8-\-6---6---6-\-5---5---5-\-4-|
---0---0---0---0---4-/-7---8---8---8-\-6---6---6-\-5---5---5-\-4-|

sometimes this riff is played (only the end bit is different)

-----------------------------------------------------------------|
-----------------------------------------------------------------|
-----------------------------------------------------------------|
-----------2--------------5---------------2-------------------2--|
---x-x-x-x-2--------------5-------x-x-x-x-2-------------------2--|
---0-0-0-0-0--------------3-------0-0-0-0-0-------------------0--| (continued ->)

----------------------------------------------------------------|
----------------------------------------------------------------|
----------------------------------------------------------------|
---5-/-8---8---8---4---5___-------------------------------------|
---5-/-8---8---8---4---5___-------x---x---x---x---x---x---x-----|
---3-/-6---6---6---2---3___------(3)-(3)-(3)-(3)-(3)-(3)-(3)----|

                                (^ play these notes the last time only)

Break (bass loop)

----------------------------------------------------------------|
----------------------------------------------------------------|
---8\7---------------------8\7----------------------------------|
---8\7---7/8---7/8---7/8---8\7-8\7------------------------------|
---6\5---7/8---7/8---7/8---6\5-8\7------------------------------|
---------5/6---5/6---5/6-------6\5------------------------------|

play this riff a couple of times...

(Cant escape the.....      HATE!)

-----------------------------------------------------------------|
-----------------------------------------------------------------|
--------------------------------10__-----------6___--------------|
---2___-------------------------10__-----------6___--------------|
---2___-------------------------8___-----------4___--------------|
---0___-------------------------8___-----------4___--------------| (contd ->)

----------------------------------------------------------------|
----------------------------------------------------------------|
--------------------------------4___-----------------x---x------|
---5___-------------------------4___-----------3__---3---3------|
---5___-------------------------2___-----------3__---3---3------|
---3___-------------------------2___-----------1__---1---1------|

Intro riff again
...

-----------------------------------------------------------------|
-----------------------------------------------------------------|
---4~--------------5-\-4--------------5-/-6---6---6---6-6-6------|
--------------------------------------5-/-6---6---6---6-6-6-2----|_____...
---2~--x-x-x-x-x-x-3-\-2--x-x-x-x-x-x-3-/-4---4---4---4-4-4-2----|_____...
-------0-0-0-0-0-0--------0-0-0-0-0-0-3-/-4---4-------------0----|_____...

the second guitar plays
-------------------------|
-------------------------|
---10\-9---7---9~--------|
-------------------------|
---8-\-7---5---7~--------|
-------------------------|                   2           5
                                            2           5
Repeat the above riff, only change the last 0  chord to 3

End part:

----------------------------------------------------------------|
----------------------------------------------------------------|
---5-\-4___--------------------5-\-4----------------------------|
---5-\-4___--------------------5-\-4---4___---5___--------------|
---3-\-2___--------------------3-\-2---4___---5___--------------|
---3-\-2___--------------------3-\-2---2___---3___--------------|

Play this riff a couple of times followed by:

(Don't you take my actions...)

----------------------------------------------------------------|
----------------------------------------------------------------|
---5-\-4---4-4-----------5-\-4---4-4----------------------------|
---5-\-4---4-4-----------5-\-4---4-4----4---5-------------------|
---3-\-2---2-2-----------3-\-2---2-2----4---5-------------------|
---3-\-2---2-2-----------3-\-2---2-2----2---3-------------------|
Tap to rate this tab
# A B C D E F G H I J K L M N O P Q R S T U V W X Y Z