Song name
# A B C D E F G H I J K L M N O P Q R S T U V W X Y Z

Vision Of Disorder - Color Blind tab

Band- Vision Of Disorder
Song- Color Blind

--------------------------|---------------------------------------------------|
--------------------------|---------------------------------------------------|
--------------------------|---------------------------------------------------|
-9-13-8-7--3-4-3-1-3-4-1--|---------------------------------------------------|
-9-13-8-7--3-4-3-1-3-4-1--|---------------------------------------------------|
-9-13-8-7--3-4-3-1-3-4-1--|---------------------------------------------------|


------------------------------------------------------------------------------|
------------------------------------------------------------------------------|
------------------------------------------------------------------------------|
-x-x-x-x-10-10-10-x-x-x-x-9-9-9-x-x-x-x-10-10-10-x-x-x-x-3-2-0--0-6-6-3-------|
-x-x-x-x-10-10-10-x-x-x-x-9-9-9-x-x-x-x-10-10-10-x-x-x-x-3-2-0--0-6-6-3-------|
-x-x-x-x-10-10-10-x-x-x-x-9-9-9-x-x-x-x-10-10-10-x-x-x-x-3-2-0--0-6-6-3-------|
 Pm. . .          . . . .       . . . .          . . . . . . .  .

-------------------------|----------------------------------------------------|
-------------------------|----------------------------------------------------|
---7-------7-------------|----------------------------------------------------|
-5---4-7-5---0-0-0-3-3-3-|-xxxx-xxxx-xxxx-xxxx-4-4-5-4-5-0--------------------|
-5---4---5---0-0-0-3-3-3-|-xxxx-xxxx-xxxx-xxxx-4-4-5-4-5-0--------------------|
-5---4---5---0-0-0-3-3-3-|-xxxx-xxxx-xxxx-xxxx-4-4-5-4-5-0--------------------|


-----------------|------------------------------------------------------------|
-----------------|------------------------------------------------------------|
-----------------|-------8-8-x-8-8--------------------------------------------|
-3-3-3---2-2-2-0-|-0-0-x-6-6-x-6-6-0-0-x-0-0----------------------------------|
-3-3-3---2-2-2-0-|-0-0-x-----------0-0-x-0-0----------------------------------|
-3-3-3---2-2-2-0-|-0-0-x-----------0-0-x-0-0----------------------------------|


------------------------------------------------------------------------------|
------------------------------------------------------------------------------|
------------------------------------------------------------------------------|
-x-x-8p7-8p7-2-2-2-2-2-2-x-x-8p7-3-3-3-3-3-3----------------------------------|
-x-x-8p7-8p7-2-2-2-2-2-2-x-x-8p7-3-3-3-3-3-3----------------------------------|
-x-x-8p7-8p7-2-2-2-2-2-2-x-x-8p7-3-3-3-3-3-3----------------------------------|


------------------------------------------------------------------------------|
------------------------------------------------------------------------------|
------------------------------------------------------------------------------|
-4-4-4--3--1---3-4-1--3-4-1---------------------------------------------------|
-4-4-4--3--1---3-4-1--3-4-1---------------------------------------------------|
-4-4-4--3--1---3-4-1--3-4-1---------------------------------------------------|
Tap to rate this tab
# A B C D E F G H I J K L M N O P Q R S T U V W X Y Z