Guitaretab - guitar tabs
Song name
# A B C D E F G H I J K L M N O P Q R S T U V W X Y Z

Vision Of Disorder - Divide tab

Band- Vision Of Disorder
Song- Divide

----------------------------------------------------------------|
----------------------------------------------------------------|
---x---x-x-x---x-x---x-x-x--------------------------------------|
---4---4-4-3---3-4---4-4-4-5__-5__------...>--------------------|
---4---4-4-3---3-4---4-4-4-5__-5__------------------------------|
---2---2-2-1---1-2---2-2-2-3__-3__------------------------------|

----------------------------------------------------------------|
----------------------------------------------------------------|
---x---x-x-x---x-x---x-x-x--------------------------------------|
---4---4-4-3---3-4---4-4-4-5__-7__------------------------------|
---4---4-4-3---3-4---4-4-4-5__-7__------------------------------|
---2---2-2-1---1-2---2-2-2-3__-5__------------------------------|


----------------------------------------------------------------|
----------------------------------------------------------------|
---9/10----9/10----9/10----9/10--9___---------------------------|
---9/10----9/10----9/10----9/10--9___---------------------------|
---7/8-----7/8-----7/8-----7/8---7___---------------------------|
-------------------------------------0___-----------------------|

[ Tab from: http://www.guitaretab.com/v/vision-of-disorder/65753.html ]
----------------------------------------------------------------|
----------------------------------------------------------------|
--------------------------------------3___----------------------|
----------------------------x-x-x-----3___----------------------|
---x-x-----x-x-----x-x------3-2-1-x-x-1___----------------------|
---0-1-----0-1-----0-1------------1-0---------------------------|
                           (^ not sure about these notes
                              rhythm is right though)


----------------------------------------------------------------|
----------------------------------------------------------------|
---8/9---8/9---8/9__---9___------7/8---7/8---7/8__---9___-------|
-----------------------9___--------------------------9___-------|
---6/7---6/7---6/7__---7___------5/6---5/6---5/6__---7___-------|
----------------------------------------------------------------|


----------------------------------------------------------------|
----------------------------------------------------------------|
-----------------------------------------------------------9___-|
---5---4/5---------5---4/5---------5---4/5-----------------9___-|
---5---4/5---------5---4/5---------5---4/5-----------------7___-|
---3-0-2/3-0-0-0-0-3-0-2/3-0-0-0-0-3-0-2/3-0-0-0-0-0-0-0-0------|

  (1               2               3               4            )


----------------------------------------------------------------|
----------------------------------------------------------------|
----------------------------------------------------------------|
---2___----------------------------5-------3-------2_-----------|
---2___----------------------------5-x-x-x-3-x-x-x-2_-----------|
---0___----------------------------3-3-3-3-1-1-1-1-0_-----------|
Related for Divide tab
Advertisement will be closed in 10 seconds