Song name
# A B C D E F G H I J K L M N O P Q R S T U V W X Y Z

Vision Of Disorder - Living To Die tab

Band- Vision Of Disorder
Song- Living To Die

Tuning:D,G,C,F,A,D

--------------|-------------|---------------------------|---------------------------|
--------------|-------------|---------------------------|---------------------------|
--------------|-66665555----|-------------------------- |-----------------66665555--|
--------------|-66665555----|----------------5----------|-----------------66665555--|
--------------|-44443333----|-3553-353-3553--x----------|-----------------44443333--|
1101-1011/650-|-------------|-1331-131-1331--3-2-20202--|1101-1011/640--------------|
                                                         3x

---------------------------------|---------------------------|
----77---------------------------|---------------------------|
-------------------------------- |-----------------66665555--|
-----------------5---------------|-----------------66665555--|
3553---353-3553--x---------------|-----------------44443333--|
1331---131-1331--3-2-20202-------|1101-1011/640--------------|
                                                              Chorus
-----------------------------------------|    |------------------------------|
-----------------------------------------|    |------------------------------|
4h5h94-4h5h5h6h4-xxxx-4h5h943-4h5h6-1----|gtr1|-----------5------------------|
-----------------------------------------|    |-----------5------------------|
3------6------4--------8---b8------------|gtr2|-6796-4545-3-3--6796-44-44----|
1------4------2--------6-----------------|gtr2|-4574-2323---1--4574 22 22--4-|
Effect

-------------|------------------------------------|-------------------------|
-------------|------------------------------------|-------------------------|
-5-----------|---------------------66665555-------|-------------------------|
-5-----------|---------------------66665555-------|-------------------------|
-3-----------|---------------------44443333-------|-------------------------|
-------9/0---|-1101-1011/640----------------------|1-1-0-1--1-0-1-1/64-0----|
tremolo                                                 Slowed Down
Tap to rate this tab
# A B C D E F G H I J K L M N O P Q R S T U V W X Y Z