Song name
# A B C D E F G H I J K L M N O P Q R S T U V W X Y Z

Vista Chino - Adara tab

ADARA

VISTA CHINO

Tuning:C F Bb Eb G C

Tabbed by:Brownbear93

Intro:                                               x2
|-------------------------------------------------------|
|-------------------------------------------------------|
|-------------------------------------------------------|*[] first time only
|------6---8-6-/10--8--8h10p8\6--------6--8-6-/10--[8]--|
|--8----------------------------8p6-8-------------------|
|-------------------------------------------------------|

                                             x4
|-----------------------------------------------|
|-----------------------------------------------|
|---------5h6p5---------------------------------|
|-----5h6-------6-5-6----------6--8p6-/10-------|
|--8-------------------8---6h8------------6-----|
|-----------------------------------------------|

|---------------------------------------------------------------|
|------------------------/18------------------------------------|
|--------17-18-17------------15-17------17-18-17-----/17--------|
|---15--------------15--------------15------------15-----17-18--|
|---------------------------------------------------------------|
|---------------------------------------------------------------|

|---------------------------------------------------------------|
|------------------------/18-------------------------16---------|
|--------17-18-17------------15-17------17-18-17----------------|
|---15--------------15--------------15------------15-----17-18--|
|---------------------------------------------------------------|
|---------------------------------------------------------------|


Verse Riff:           x4                               x4
|------------------------|--------------------------------|
|------------------------|--------------------------------|
|------------------------|--------------------------------|
|------------------------|-/10--/10--\--/10--/10----------|
|---8---8\----8--8-10h11-|--/8---/8--\---/8---/8-10h11----|
|------------------------|--------------------------------|


Chorus:                                 x4
|-------------------------------------------|
|-------------------------------------------|
|------------8------------------------------|
|-10-10\---8-6---x-8--10--10----------------|
|--8--8\---6-----x-6---8---8--6--6--10--10--|
|----------------------------4--4---8---8---|

                                              x4
|-----------------------------------------------|
|-----------------------------------------------|
|---------5h6p5---------------------------------|
|-----5h6-------6-5-6----------6--8p6-/10-------|
|--8-------------------8---6h8------------6-----|
|-----------------------------------------------|

|---------------------------------------------------------------|
|------------------------/18-------------------------18---------|
|--------17-18-17------------15-17------17-18-17----------------|
|---15--------------15--------------15------------15-----15-15--|
|---------------------------------------------------------------|
|---------------------------------------------------------------|

|---------------------------------------------------------------|
|------------------------/18-------------------------18---------|
|--------17-18-17------------15-17------17-18-17----------------|
|---15--------------15--------------15------------15-----17-15--|
|---------------------------------------------------------------|
|---------------------------------------------------------------|

Verse

Chorus


"She blew your mind away..."
G1                           x8                             x4                 x4
|-------------------------------|-------------------------------|-----------------|
|-------------------------------|-------------------------------|-----------------|
|-------------------------------|-------------------------------|-----------------|
|-------9---------12---12-------|-------9--9/12-12-----12-12----|---9---------12--|
|-------9---------12---12-------|-------9--9/12-12-----12-12----|---9---------12--|
|--7--7-7--7/10---10------10----|---7-7-7--7/10-10--10-10----10-|---7---------10--|


G2                                x3
|------------------------------------|------------------------------|
|------------------------------------|------------------------------|
|------------------------------------|------------------------------|
|-------12--14-12-14/16--14h16p14\12-|------12--12h14-12-14---------|
|---14-------------------------------|--14------------------14-12---|
|------------------------------------|------------------------------|

|----------------------------------------------------------------------------------|
|----------------------------------------------------------------------------------|
|----------------------------------------------------------------------------------|
|--------------------------------------------------7b------------------------------|
|--9-9-9-9-9-9-9--/9--9-9-9-9-9-9-9---/9-9-9-9-9-9------9-9-9-9-9--/9-9-9-9-9-9-9--|
|----------------------------------------------------------------------------------|

|--------------------------------------------------------------------------------|
|--------------------------------------------------------------------------------|
|-------------------------/7-7-7--7-9-9b--------7-9~--7-9-9b------------7-9-9b---|
|--7b-9~----------7-9-7-9-------------------7-9----------------7-9-9-7-----------|
|--------/9-9-9-9----------------------------------------------------------------|
|--------------------------------------------------------------------------------|

|-------------------------------------------------------------------------------|
|-------------------------------------------------------------------------------|
|--9br-9-7---7-9-9b--------7-9-11--11/14-14---------16---------14------------16-|
|---------------------7/9--------------------16-16------16-16------16-16-16-----|
|-------------------------------------------------------------------------------|
|-------------------------------------------------------------------------------|

|---------------------------------------------------------------------------|
|---------------------------------------------------------------------------|
|-----------14------------16--------------------14-14-----------------------|
|-16-14-16------16-16-16------16-14-14-14h16-16-------16-16-14h16--16-16----|
|---------------------------------------------------------------------------|
|---------------------------------------------------------------------------|


Outro Riff:       x4
|--------------------|
|--------------------|
|--------------------|
|--------------------|
|--9-9--6-6-5-6-9----|
|--7-7--4-4-3-4-7----|



************************************

| /   slide up
| \   slide down
| h   hammer-on
| p   pull-off
| ~   vibrato
| +   harmonic
| x   Mute note
| b   Bend
| pb  Pre-bend
| br  Bend release
| pbr Pre-bend release
| brb Bend release bend

************************************
Tap to rate this tab
# A B C D E F G H I J K L M N O P Q R S T U V W X Y Z