Song name
# A B C D E F G H I J K L M N O P Q R S T U V W X Y Z

Vista Chino - Planets 1 And 2 tab

PLANETS 1 & 2

VISTA CHINO

Tuning:C F Bb Eb G C

Tabbed by:Brownbear93


PLANET 1


Intro:
G1                                  x4
|-------------------------------------|
|-------------------------------------|
|-------------------------------------|
|----------7h8-7~-----10--------------|
|------7h8----------5--8---5-5---5-3--|
|--6-6-----------------------3---3-1--|


G2 *Note in [] not played last time through    x4
|------------------------------------------------|
|------------------------------------------------|
|--------------14h15-14~-------------12br--------| 
|--------14h15-------------12-15--12------[15~]--|
|--13-13-----------------------------------------|
|------------------------------------------------|


Main Riff:
|------------------|-------------------|-----------------|------------------|
|------------------|-------------------|-----------------|------------------|
|------------------|-------------------|-----------------|10\9-9-9/10-10-10-|
|--7-7-7-----7-----|10----10----10\9\7-|-7-7-7-----7-----|------------------|
|--5-5-5-5-5-5-5-5-|-8-x-x-8-x-x-8\7\5-|-5-5-5-5-5-5-5-5-|-8\7-7-7/-8--8--8-|
|------------------|-------------------|-----------------|------------------|
PM ...   ...   ...     ...   ...         ...   ...   ...


Chorus:
G1                                                                    x3
|-----------------------------------------------------------------------|
|-----------------------------------------------------------------------|
|-----------------------------------------------------------------------|
|--8--8--8-8-8-8--8--8-8-10-10/12--12-12-12--12-12-12-12-12--12-12------|
|--8--8--8-8-8-8--8--8-8-10-10/12--12-12-12--12-12-12-12-12--12-12------|
|--6--6--6-6-6-6--6--6-6--8--8/10--10-10-10--10-10-10-10-10--10-10------|

|---------------------------------------|
|---------------------------------------|
|-------------------10-10-10-9-9-9\7----|
|--8--8--8-8-8-8--8-10-10-10-9-9-9\7----|
|--8--8--8-8-8-8--8--8--8--8-7-7-7\5----|
|--6--6--6-6-6-6--6---------------------|

G2
|--------------------------------------------------------------------------------|
|--------------------------------------------------------------------------------|
|--15~----12brp10----------------14h15~----17b------17-15~----12brp10------------|
|-----------------12p10-12~-------------------------------------------12p10-12~--|
|--------------------------------------------------------------------------------|
|--------------------------------------------------------------------------------|

|--------------------------------|
|--------------------------------|
|-14h15~--14--12brp10------------|
|---------------------12p10-12~--|
|--------------------------------|
|--------------------------------|

Main Riff

Chorus

Solo: Not 100%, but should be close
|--------------------------------------------------------------------------------------------|
|--------------------------------------------------------------------------------------------|
|--12-12b-12b-12b-12b-12b--(12)--12p10-12b-12-12brbrbr-12-12-10-10-10br-12-10-10-12brbrbr~---|
|--------------------------------------------------------------------------------------------|
|--------------------------------------------------------------------------------------------|
|--------------------------------------------------------------------------------------------|
      *gradually bend

|--------------------------------------------------------------------------------------------|
|---------------------------------------------------------------13b-(13-13)r-13-13-13p10-13b-|
|-14brbrbr~-10-12p10-12-12b~--10-12p10--12br-10----------------------------------------------|
|-----------------------------------------------12-10----------------------------------------|
|-----------------------------------------------------12b-10-10------------------------------|
|--------------------------------------------------------------------------------------------|

|-------------------------15brb-15b-(15-15)r-13-15brb-13-------------------------------------|
|--13-10-10-13b-15-15-13---------------------------------15p13----15-------------------------|
|--------------------------------------------------------------14----14-12-10-12p10-12-12b---|
|--------------------------------------------------------------------------------------------|
|--------------------------------------------------------------------------------------------|
|--------------------------------------------------------------------------------------------|

|--------------------------------------------------------------------------------------------|
|--------------------------------------------------------------------------------------------|
|-10-12p10--------------------------------10-------10----10p9-----------------------------10-|
|----------12-12b-12-10-10h12-12-12-12-12----12-12----12------12--12-12-12-12-12-12-12-12----|
|--------------------------------------------------------------------------------------------|
|--------------------------------------------------------------------------------------------|

|----------------------------------------------------------------------------------------------|
|----------------------------------------------------------------------------------------------|
|-----10----12p10-12br-------------------------10-------10p9-------------------10-12br-10-12b~-|
|--12----12------------12p10-12-12-12-12-12-12----12-12------12-12-12-12-12-12-----------------|
|----------------------------------------------------------------------------------------------|
|----------------------------------------------------------------------------------------------|

|-------------------------------------|
|------------------------------18~----|
|---======FEEDBACK========------------|
|-------------------------------------|
|-------------------------------------|
|-------------------------------------|

G1 ends on
|---------|
|---------|
|---7-----|
|---7-----|
|---5-----|
|---------|


PLANET 2


Main Riff:
G1                                 x8                                 x4
|-------------------------------------|----------------------------------|
|-------------------------------------|----------------------------------|
|-------------------------------------|----------------------------------|
|-------------------------------------|----------------------------------|
|--0--0--0-0-12-12--0-----0-0-12-10---|-0-------0------0-0------0-8-8-8--|
|--8-10-10-0-10-10--8h10-10-0-10--8---|-8h10-10-0-10~--0-0-10~--0-6-6-6--|

G2:
|-------------------------------------------------------------------------|
|-----------15~---13~----13-----------------------------------------------|
|------------------------12b------12brp10---------------------------------|
|--12~------------------------------------12~--------x-12-x-12b--x-x-12b--|
|-------------------------------------------------------------------------|
|-------------------------------------------------------------------------|

|------------------------------------------------------------------------------------|
|------------------------------------------------------------------------------------|
|----------10b----------------------------10b-10-------------------------------------|
|-x-12b-12------x-x-12-x-12b--x-x-12b-x-x--------12~---x-x-12-x-12b-x-x-12b-12-12-12-|
|------------------------------------------------------------------------------------|
|------------------------------------------------------------------------------------|

|------------------------------------------|
|------------------------------------------|
|------------------------------------------|
|--x-12-x-12b-x-x-12b-10-12p10----10-------|
|------------------------------12----12----|
|------------------------------------------|

Main Riff

Verse:
G1                                 x4
|-------------------------------------|
|-------------------------------------|
|-------------------------------------|
|----------7h8-7~-----10--------------|
|------7h8----------5--8---5-5---5-3--|
|--6-6-----------------------3---3-1--|

G2                                              x4
|------------------------------------------------|
|------------------------------------------------|
|--------------14h15-14~-------------12br--------| 
|--------14h15-------------12-15--12------15~----|
|--13-13-----------------------------------------|
|------------------------------------------------|

G1:Main Riff

G2:
|--------------------------------------------------------------22-------------|
|-------15---18---20---22--------22--------18---20---18---22--------18---15---|
|--12-----------------------19--------19--------------------------------------|
|-----------------------------------------------------------------------------|
|-----------------------------------------------------------------------------|
|-----------------------------------------------------------------------------|
    
                                     x4
|--------------------------------------|
|--------------------------------------|
|--x-x-17b-17-17b--x-x-17b-------------|
|--------------------------x-15-15-15--|
|--------------------------------------|
|--------------------------------------|

|------------------------------------------------------------22----|
|----15---18---20---22--------22--------18---20---18---22----------|
|------------------------19--------19------------------------------|
|------------------------------------------------------------------|
|------------------------------------------------------------------|
|------------------------------------------------------------------|
    


Verse

G1:Main Riff


G2:
|----------------------------------------------------------------------------------------|
|----------------------------------------------------------------------------------------|
|--12brbr~--10-12p10----10-12b-12-10--10-12b-10-12b---10-12b-10----10-12br-12-10-12-10~--|
|--------------------12-----------------------------------------12-----------------------|
|----------------------------------------------------------------------------------------|
|----------------------------------------------------------------------------------------|

|----------------------------------------------------------------------------------------|
|-----------------------------------13b-10h13p10-13b-------------------------------------|
|----10-12b-10-12b-10-12b-10-----10--------------------10-12b-10-12b-10-12b-10----10-12b-|
|----------------------------12------------------------------------------------12--------|
|----------------------------------------------------------------------------------------|
|----------------------------------------------------------------------------------------|

                                                              x4     End On:
|-------------------------|--------------------------------------|------------|
|-------------------------|------13----13-------13----13---------|------------|
|--pb12r-10----10-12br-10-|--x-x-12b-x-12b--x-x-12b---12b-12-10~-|------------|
|-----------12------------|--x-x-----x------x-x------------------|---10h12~---|
|-------------------------|--------------------------------------|------------|
|-------------------------|--------------------------------------|------------|


************************************

| /   slide up
| \   slide down
| h   hammer-on
| p   pull-off
| ~   vibrato
| +   harmonic
| x   Mute note
| b   Bend
| pb  Pre-bend
| br  Bend release
| pbr Pre-bend release
| brb Bend release bend
| ()  Play note while string is bent

************************************
Tap to rate this tab
# A B C D E F G H I J K L M N O P Q R S T U V W X Y Z