Song name
# A B C D E F G H I J K L M N O P Q R S T U V W X Y Z

Vit Legion - Vitt Motstand tab

Vitt Motstand by:Vit Legion

Intro and interlude:
  Eb
E|----------------------------------------------------------|
B|----------------------------------------------------------|
G|----------------------------------------------------------|
D|-----------------------------2----------------------------|
A|--2--2-2-2-2-----2-2-2-2-2-2---2-2-2-2-2-2-----2-2-2-2-2--|
E|--0--0-0-0-0-5b--0-0-0-0-0-0---0-0-0-0-0-0-5b--0-0-0-0-0--|
       . . . .     . . . . . .   . . . . . .     . . . . .
Verse:
  Eb                               Ab              B
E|------------------------------------------------------------------|
B|------------------------------------------------------------------|
G|------------------------------------------------------------------|
D|---------------------------------2-2-2-2-2-2-2-2-5-5-5-5-5-5-5-5--|
A|-2-2-2-2-2-2-2-2-2-2-2-2-2-2-2-2-0-0-0-0-0-0-0-0-3-3-3-3-3-3-3-3--|
E|-0-0-0-0-0-0-0-0-0-0-0-0-0-0-0-0----------------------------------|
   . . . . . . . . . . . . . . . . . . . . . . . . . . . . . . . .
Chorus:
    Eb    B  c#
E|--------------|
B|--------------|
G|--------5--7--|
D|--2--2--5--7--|
A|--2--2--3--5--|
E|--0--0--------|

By: themechanix100
Tap to rate this tab
 
# A B C D E F G H I J K L M N O P Q R S T U V W X Y Z