Song name
# A B C D E F G H I J K L M N O P Q R S T U V W X Y Z

Vit Legion - Svunna Tider tab

Svunna Tider By:Vit Legion.

Intro/interlude:

acoustic part:

   Ebm            F#    F
Eb|-----------------------------|
Bb|-------0---------------------|
Gb|---------0---------0-----0---|
Db|-----2-----2---------------0-|
Ab|---2---------2---5-----4-----|
Eb|-0-------------3-----2-------|

electric part:

    Eb        F#  F   F#
Eb|-----------------------|
Bb|-----------------------|
Gb|-----------------------|
Db|-----------------------|
Ab|-2--2-2-2--5-5-4-4-5-5-|
Eb|-0--0-0-0--3-3-2-2-3-3-|
       . . .    .   . . .

Last time

    Eb      F#      F
Eb|-------------------------|
Bb|-------------------------|
Gb|-------------------------|
Db|-------------------------|
Ab|-2-2-2-2-5-5-5-5-4-4-4-4-|
Eb|-0-0-0-0-3-3-3-3-2-2-2-2-|
      . . . . . . . . . . .

Verse:

    Eb            B               C#              F#    C#
Eb|-----------------------------------------------------------|
Bb|-----------------------------------------------------------|
Gb|-----------------------------------------------------------|
Db|---------------5-5-5-5-5-5-5-5-7-7-7-7-7-7-7-7-------7-7-7-|
Ab|-2-2-2-2-2-2-2-3-3-3-3-3-3-3-3-5-5-5-5-5-5-5-5-2-2-2-5-5-5-|
Eb|-0-0-0-0-0-0-0---------------------------------3-3-3-------|
      . . . . . . . . . . . . . . . . . . . . . .   . .   . .

Chorus:

rhythm part:

    B                           Eb
Eb|---------------------------------------------------------|
Bb|---------------------------------------------------------|
Gb|---------------------------------------------------------|
Db|-5-5-5-5-5-5-5-5-5-5-5-5-5-5-----------------------------|
Ab|-3-3-3-3-3-3-3-3-3-3-3-3-3-3-2-2-2-2-2-2-2-2-2-2-2-2-2-2-|
Eb|-----------------------------0-0-0-0-0-0-0-0-0-0-0-0-0-0-|
    . . . . . . . . . . . . . . . . . . . . . . . . . . . .

    Ab                          Eb
Eb|---------------------------------------------------------|
Bb|---------------------------------------------------------|
Gb|---------------------------------------------------------|
Db|-2-2-2-2-2-2-2-2-2-2-2-2-2-2-----------------------------|
Ab|-0-0-0-0-0-0-0-0-0-0-0-0-0-0-2-2-2-2-2-2-2-2-2-2-2-2-2-2-|
Eb|-----------------------------0-0-0-0-0-0-0-0-0-0-0-0-0-0-|
    . . . . . . . . . . . . . . . . . . . . . . . . . . . .

lead parts:

Eb|------------------------|
Bb|------------------------|
Gb|------------------------|
Db|---------------9-7----7-|
Ab|-7-7-7-7-7-7-7-----10---|
Eb|------------------------|

Eb|------------------------|
Bb|------------------------|
Gb|---------------9-7----7-|
Db|-7-7-7-7-7-7-7-----10---|
Ab|------------------------|
Eb|------------------------|

Outro:

   Eb       F# F  F# Eb
Eb|---------------------|
Bb|---------------------|
Gb|---------------------|
Db|---------------------|
Ab|-2-2-2-2--5--4--5--2-|
Eb|-0-0-0-0--3--2--3--0-|
      . . .

By:themechanix100
Tap to rate this tab
# A B C D E F G H I J K L M N O P Q R S T U V W X Y Z