Vitaa - Mon Paradis Secret tab

Vitaa's official site:

http://vitaa.artistes.universalmusic.fr/

hi guys
I'm not sure how to describe the tuning for this song, but heres a website that can tune it....

http://www.howtotuneaguitar.org/
The tuning goes: C1 F#1 B1 E2 G#2 C#3

Chords repeated:

G Em C D

Tabs:

3----------0-~-------------|
---------------------------|
---------------------------|
--0------------------------|
----3------0-~-------------|
-------5-3-0--3-/-2-/-0----|


---------------------------|
-3----------------------0--|
----------------0-~--------|
---0----------0------------|
-----0-/-1---1-------------|
-----------0----2-5-3-2-3--|

3----------0-~-------------|
---------------------------|
---------------------------|
--0------------------------|
----0------0-~-------------|
-------5-3-0--3-/-2-/-0----|

---------------------------|
-3----------------------0--|
----------------0-~--------|
---0----------0------------|
-----0-/-1---1-------------|
-----------0----2-5-3-2-3--|

J'ai fais couler un peu d'encre
Sur un bout de papier
J'ai falcifier mon pr?sent
Pour pouvoir imaginer
Ce coin de ciel o? se m?langent
Nos r?ves et nos id?es
A chacun sa vision ?trange
De ce havre de paix

REFRAIN:
Mon paradis ? moi,
Fais semblant d'exister
Pourquoi plus j'avance moins je le vois
Mon bonheur se voit au del?
Mon paradis ? moi,
Fais sourire les autres
Mais pourquoi plus j'avance moins je le vois?
Pourtant j'aimerais l'imaginer,
Aussi loin que ma voix me portait,
Mon paradis atteint des sommets,
Aussi beaux que les enfants que j'aurai,
Mon paradis secret.
Et si tous les mots d'amour ici bas,
Ecrivent et disent de chanter pour toi,
Diviser les foules au combat,
J'irai l? bas

Essayez d'imaginer les mots qu'on m'a laiss?
Essayons d'?viter, d'?viter le pass?.
20 chansons d'amour pour un gars
Et ses n?cessit?s.
Plus d'un million d'enfants nous pardonnent,
De les abandonner

REFRAIN:(x2)


http://www.lyricsmode.com/lyrics/v/vitaa/#share

Let me know if there are any mistakes :-)
Tap to rate this tab
 
# A B C D E F G H I J K L M N O P Q R S T U V W X Y Z