Vital Remains - Icons Of Evil tab

vital remians
icons of evil
off of icons of evil
tuning is d a d g b e
tabber ben chaffins
this is the intro
e-----------------------------|
b-----------------------------|
g-----------------------------|
d-----------------------------|
a-3-2--5--3-2--3-3--2--5--3-2-|
d-3-2--5--3-2--3-3--2--5--3-2-|

play this 6 times
e-----------------------------------|
b-----------------------------------|
g-----------------------------------|
d------------------------5--5--4-4--|
a-3--2--5--3--2--3-3--2--5--5--4-4--|
d-3--2--5--3--2--3-3--2-------------|

play this 8 times
e-------------------------------|
b-------------------------------|
g-------------------------------|
d-------------------------------|
a---5-5-4-4-3-3-4-4-3-3-2-------|
d-0-----------------------4-3-1-|

then this 7 times
e----------------------------------|
b----------------------------------|
g----------------------------------|
d----7-7-6-6-5-5-6-6-5-5-4-4-------|
a-0--5-5-4-4-3-3-4-4-3-3-2-2-4-3-1-|
d-0--------------------------4-3-1-|
Tap to rate this tab
 
# A B C D E F G H I J K L M N O P Q R S T U V W X Y Z