Song name
# A B C D E F G H I J K L M N O P Q R S T U V W X Y Z

Vital Remains - Farewell To The Messhiah tab

FARWELL TO THE MESSHIAH
        by Vital Remains
         taken from the album "Forever Underground"
          transcribed by Zack Demianczyk



Normal Tunning

|-------------------------------------------|
|-------------------------------------------|
|-------------------------------------------|
|-----3----------3-----------3-----------3--|
|-1----------1----------1-----------1-------|
|-------------------------------------------|


|------------------------------------------------------|
|------------------------------------------------------|
|------------------------------------------------------|
|-------3-----------3-------------3------------3-------|
|-1------------1-------------1-----------1-------------|
|------------------------------------------------------|
|           & nbsp;           &n bsp;           &nb sp;           &nbs
p;      |
|------------------------------------------------------|
|--------------4-------------------------------4--7-6--|
|-3--5-5---5-6----6-5-6-5-3-------3--5-5---5-6---------|
|------------------------------------------------------|
|------------------------------------------------------|
|------------------------------------------------------|< /DIV>
Tap to rate this tab
# A B C D E F G H I J K L M N O P Q R S T U V W X Y Z